  0
SECTION
  2
HEADER
  9
$ACADVER
  1
AC1014
  9
$ACADMAINTVER
 70
     0
  9
$DWGCODEPAGE
  3
ANSI_1252
  9
$INSBASE
 10
0.0
 20
0.0
 30
0.0
  9
$EXTMIN
 10
113.558043
 20
-49.90638
 30
0.0
  9
$EXTMAX
 10
233.860438
 20
105.779072
 30
20.0
  9
$LIMMIN
 10
-24.570377
 20
-51.491994
  9
$LIMMAX
 10
97.838929
 20
108.420671
  9
$ORTHOMODE
 70
     1
  9
$REGENMODE
 70
     1
  9
$FILLMODE
 70
     1
  9
$QTEXTMODE
 70
     0
  9
$MIRRTEXT
 70
     1
  9
$DRAGMODE
 70
     2
  9
$LTSCALE
 40
4.0
  9
$OSMODE
 70
   675
  9
$ATTMODE
 70
     1
  9
$TEXTSIZE
 40
1.5
  9
$TRACEWID
 40
0.05
  9
$TEXTSTYLE
  7
ROMAND
  9
$CLAYER
  8
DIM
  9
$CELTYPE
  6
BYLAYER
  9
$CECOLOR
 62
     6
  9
$CELTSCALE
 40
1.0
  9
$DELOBJ
 70
     1
  9
$DISPSILH
 70
     0
  9
$DIMSCALE
 40
1.0
  9
$DIMASZ
 40
1.5
  9
$DIMEXO
 40
0.75
  9
$DIMDLI
 40
0.38
  9
$DIMRND
 40
0.0
  9
$DIMDLE
 40
0.0
  9
$DIMEXE
 40
1.5
  9
$DIMTP
 40
0.0
  9
$DIMTM
 40
0.0
  9
$DIMTXT
 40
0.18
  9
$DIMCEN
 40
-1.5
  9
$DIMTSZ
 40
0.0
  9
$DIMTOL
 70
     0
  9
$DIMLIM
 70
     0
  9
$DIMTIH
 70
     1
  9
$DIMTOH
 70
     1
  9
$DIMSE1
 70
     0
  9
$DIMSE2
 70
     0
  9
$DIMTAD
 70
     0
  9
$DIMZIN
 70
     0
  9
$DIMBLK
  1

  9
$DIMASO
 70
     1
  9
$DIMSHO
 70
     1
  9
$DIMPOST
  1

  9
$DIMAPOST
  1

  9
$DIMALT
 70
     0
  9
$DIMALTD
 70
     2
  9
$DIMALTF
 40
25.4
  9
$DIMLFAC
 40
1.0
  9
$DIMTOFL
 70
     0
  9
$DIMTVP
 40
0.0
  9
$DIMTIX
 70
     0
  9
$DIMSOXD
 70
     0
  9
$DIMSAH
 70
     0
  9
$DIMBLK1
  1

  9
$DIMBLK2
  1

  9
$DIMSTYLE
  2
STANDARD
  9
$DIMCLRD
 70
     0
  9
$DIMCLRE
 70
     0
  9
$DIMCLRT
 70
     0
  9
$DIMTFAC
 40
1.0
  9
$DIMGAP
 40
1.5
  9
$DIMJUST
 70
     0
  9
$DIMSD1
 70
     0
  9
$DIMSD2
 70
     0
  9
$DIMTOLJ
 70
     1
  9
$DIMTZIN
 70
     0
  9
$DIMALTZ
 70
     0
  9
$DIMALTTZ
 70
     0
  9
$DIMFIT
 70
     5
  9
$DIMUPT
 70
     0
  9
$DIMUNIT
 70
     2
  9
$DIMDEC
 70
     4
  9
$DIMTDEC
 70
     4
  9
$DIMALTU
 70
     2
  9
$DIMALTTD
 70
     2
  9
$DIMTXSTY
  7
ROMAND
  9
$DIMAUNIT
 70
     0
  9
$LUNITS
 70
     2
  9
$LUPREC
 70
     4
  9
$SKETCHINC
 40
0.1
  9
$FILLETRAD
 40
0.0
  9
$AUNITS
 70
     0
  9
$AUPREC
 70
     0
  9
$MENU
  1
acad
  9
$ELEVATION
 40
0.0
  9
$PELEVATION
 40
0.0
  9
$THICKNESS
 40
20.0
  9
$LIMCHECK
 70
     0
  9
$BLIPMODE
 70
     0
  9
$CHAMFERA
 40
0.025
  9
$CHAMFERB
 40
0.025
  9
$CHAMFERC
 40
0.0
  9
$CHAMFERD
 40
0.0
  9
$SKPOLY
 70
     0
  9
$TDCREATE
 40
2449566.477034838
  9
$TDUPDATE
 40
2453112.431692071
  9
$TDINDWG
 40
1.0309285301
  9
$TDUSRTIMER
 40
1.0309285301
  9
$USRTIMER
 70
     1
  9
$ANGBASE
 50
0.0
  9
$ANGDIR
 70
     0
  9
$PDMODE
 70
     0
  9
$PDSIZE
 40
0.0
  9
$PLINEWID
 40
0.25
  9
$COORDS
 70
     1
  9
$SPLFRAME
 70
     0
  9
$SPLINETYPE
 70
     6
  9
$SPLINESEGS
 70
     8
  9
$ATTDIA
 70
     0
  9
$ATTREQ
 70
     1
  9
$HANDLING
 70
     1
  9
$HANDSEED
  5
165B
  9
$SURFTAB1
 70
     6
  9
$SURFTAB2
 70
     6
  9
$SURFTYPE
 70
     6
  9
$SURFU
 70
     6
  9
$SURFV
 70
     6
  9
$UCSNAME
  2

  9
$UCSORG
 10
0.0
 20
0.0
 30
0.0
  9
$UCSXDIR
 10
1.0
 20
0.0
 30
0.0
  9
$UCSYDIR
 10
0.0
 20
1.0
 30
0.0
  9
$PUCSNAME
  2

  9
$PUCSORG
 10
0.0
 20
0.0
 30
0.0
  9
$PUCSXDIR
 10
1.0
 20
0.0
 30
0.0
  9
$PUCSYDIR
 10
0.0
 20
1.0
 30
0.0
  9
$USERI1
 70
     0
  9
$USERI2
 70
     0
  9
$USERI3
 70
     0
  9
$USERI4
 70
     0
  9
$USERI5
 70
     0
  9
$USERR1
 40
0.0
  9
$USERR2
 40
0.0
  9
$USERR3
 40
0.0
  9
$USERR4
 40
0.0
  9
$USERR5
 40
0.0
  9
$WORLDVIEW
 70
     1
  9
$SHADEDGE
 70
     3
  9
$SHADEDIF
 70
    70
  9
$TILEMODE
 70
     1
  9
$MAXACTVP
 70
    16
  9
$PINSBASE
 10
0.0
 20
0.0
 30
0.0
  9
$PLIMCHECK
 70
     0
  9
$PEXTMIN
 10
1.000000E+20
 20
1.000000E+20
 30
1.000000E+20
  9
$PEXTMAX
 10
-1.000000E+20
 20
-1.000000E+20
 30
-1.000000E+20
  9
$PLIMMIN
 10
0.0
 20
0.0
  9
$PLIMMAX
 10
12.0
 20
9.0
  9
$UNITMODE
 70
     0
  9
$VISRETAIN
 70
     0
  9
$PLINEGEN
 70
     0
  9
$PSLTSCALE
 70
     1
  9
$TREEDEPTH
 70
  3020
  9
$PICKSTYLE
 70
     1
  9
$CMLSTYLE
  2
STANDARD
  9
$CMLJUST
 70
     0
  9
$CMLSCALE
 40
1.0
  9
$PROXYGRAPHICS
 70
     1
  9
$MEASUREMENT
 70
     0
  0
ENDSEC
  0
SECTION
  2
CLASSES
  0
CLASS
  1
DICTIONARYVAR
  2
AcDbDictionaryVar
  3
"AutoCAD"
 90
        0
280
     0
281
     0
  0
CLASS
  1
LWPOLYLINE
  2
AcDbPolyline
  3
"AutoCAD"
 90
        0
280
     0
281
     1
  0
CLASS
  1
HATCH
  2
AcDbHatch
  3
"ACAD_SEDONA"
 90
        0
280
     0
281
     1
  0
ENDSEC
  0
SECTION
  2
TABLES
  0
TABLE
  2
VPORT
  5
8
100
AcDbSymbolTable
 70
     1
  0
VPORT
  5
1653
100
AcDbSymbolTableRecord
100
AcDbViewportTableRecord
  2
*ACTIVE
 70
     0
 10
0.0
 20
0.0
 11
1.0
 21
1.0
 12
173.713555
 22
27.939723
 13
0.0
 23
0.0
 14
2.0
 24
2.0
 15
20.0
 25
20.0
 16
0.0
 26
0.0
 36
1.0
 17
0.0
 27
0.0
 37
0.0
 40
157.396573
 41
1.750909
 42
50.0
 43
0.0
 44
0.0
 50
0.0
 51
0.0
 71
     0
 72
   100
 73
     1
 74
     0
 75
     0
 76
     0
 77
     0
 78
     1
  0
ENDTAB
  0
TABLE
  2
LTYPE
  5
5
100
AcDbSymbolTable
 70
     3
  0
LTYPE
  5
11
100
AcDbSymbolTableRecord
100
AcDbLinetypeTableRecord
  2
BYBLOCK
 70
     0
  3

 72
    65
 73
     0
 40
0.0
  0
LTYPE
  5
12
100
AcDbSymbolTableRecord
100
AcDbLinetypeTableRecord
  2
BYLAYER
 70
     0
  3

 72
    65
 73
     0
 40
0.0
  0
LTYPE
  5
13
100
AcDbSymbolTableRecord
100
AcDbLinetypeTableRecord
  2
CONTINUOUS
 70
     0
  3
Solid line
 72
    65
 73
     0
 40
0.0
  0
LTYPE
  5
26
100
AcDbSymbolTableRecord
100
AcDbLinetypeTableRecord
  2
CENTER
 70
     0
  3
____ _ ____ _ ____ _ ____ _ ____ _ ____ _ ____ 
 72
    65
 73
     4
 40
2.0
 49
1.25
 74
     0
 49
-0.25
 74
     0
 49
0.25
 74
     0
 49
-0.25
 74
     0
  0
LTYPE
  5
28
100
AcDbSymbolTableRecord
100
AcDbLinetypeTableRecord
  2
HIDDEN
 70
     0
  3
__ __ __ __ __ __ __ __ __ __ __ __ __ __ __ __
 72
    65
 73
     2
 40
0.375
 49
0.25
 74
     0
 49
-0.125
 74
     0
  0
ENDTAB
  0
TABLE
  2
LAYER
  5
2
100
AcDbSymbolTable
 70
     7
  0
LAYER
  5
E
100
AcDbSymbolTableRecord
100
AcDbLayerTableRecord
  2
0
 70
     0
 62
     7
  6
CONTINUOUS
  0
LAYER
  5
2B
100
AcDbSymbolTableRecord
100
AcDbLayerTableRecord
  2
OBJECT
 70
     0
 62
     2
  6
CONTINUOUS
  0
LAYER
  5
2C
100
AcDbSymbolTableRecord
100
AcDbLayerTableRecord
  2
DIM
 70
     0
 62
     6
  6
CONTINUOUS
  0
LAYER
  5
2D
100
AcDbSymbolTableRecord
100
AcDbLayerTableRecord
  2
HIDDEN
 70
     0
 62
     1
  6
HIDDEN
  0
LAYER
  5
2E
100
AcDbSymbolTableRecord
100
AcDbLayerTableRecord
  2
CENTER
 70
     0
 62
     3
  6
CENTER
  0
LAYER
  5
31
100
AcDbSymbolTableRecord
100
AcDbLayerTableRecord
  2
BORDER
 70
     0
 62
     5
  6
CONTINUOUS
  0
LAYER
  5
1258
100
AcDbSymbolTableRecord
100
AcDbLayerTableRecord
  2
LIMITS
 70
     0
 62
     7
  6
CONTINUOUS
  0
ENDTAB
  0
TABLE
  2
STYLE
  5
3
100
AcDbSymbolTable
 70
     5
  0
STYLE
  5
F
100
AcDbSymbolTableRecord
100
AcDbTextStyleTableRecord
  2
STANDARD
 70
     0
 40
0.0
 41
1.0
 50
0.0
 71
     0
 42
0.2
  3
txt
  4

  0
STYLE
  5
21
100
AcDbSymbolTableRecord
100
AcDbTextStyleTableRecord
  2
ROMANS
 70
     0
 40
1.5
 41
1.0
 50
0.0
 71
     0
 42
1.5
  3
ROMANS.SHX
  4

  0
STYLE
  5
23
100
AcDbSymbolTableRecord
100
AcDbTextStyleTableRecord
  2
ROMAND
 70
     0
 40
1.5
 41
1.0
 50
0.0
 71
     0
 42
1.5
  3
ROMAND.SHX
  4

  0
STYLE
  5
24
100
AcDbSymbolTableRecord
100
AcDbTextStyleTableRecord
  2
ROMANC
 70
     0
 40
0.0531
 41
1.0
 50
0.0
 71
     0
 42
0.0531
  3
romanc
  4

  0
STYLE
  5
1259
100
AcDbSymbolTableRecord
100
AcDbTextStyleTableRecord
  2
COUNTRYBLUEPRINT
 70
     0
 40
0.061059
 41
1.0
 50
0.0
 71
     0
 42
0.061059
  3
cobt____.pfb
  4

  0
ENDTAB
  0
TABLE
  2
VIEW
  5
6
100
AcDbSymbolTable
 70
     0
  0
ENDTAB
  0
TABLE
  2
UCS
  5
7
100
AcDbSymbolTable
 70
     0
  0
ENDTAB
  0
TABLE
  2
APPID
  5
9
100
AcDbSymbolTable
 70
     1
  0
APPID
  5
10
100
AcDbSymbolTableRecord
100
AcDbRegAppTableRecord
  2
ACAD
 70
     0
  0
ENDTAB
  0
TABLE
  2
DIMSTYLE
  5
A
100
AcDbSymbolTable
 70
     1
  0
DIMSTYLE
105
EB9
100
AcDbSymbolTableRecord
100
AcDbDimStyleTableRecord
  2
STANDARD
 70
     0
  3

  4

  5

  6

  7

 40
1.0
 41
0.18
 42
0.0625
 43
0.38
 44
0.18
 45
0.0
 46
0.0
 47
0.0
 48
0.0
140
0.18
141
0.09
142
0.0
143
25.4
144
1.0
145
0.0
146
1.0
147
0.09
 71
     0
 72
     0
 73
     1
 74
     1
 75
     0
 76
     0
 77
     0
 78
     0
170
     0
171
     2
172
     0
173
     0
174
     0
175
     0
176
     0
177
     0
178
     0
270
     2
271
     4
272
     4
273
     2
274
     2
340
F
275
     0
280
     0
281
     0
282
     0
283
     1
284
     0
285
     0
286
     0
287
     3
288
     0
  0
ENDTAB
  0
TABLE
  2
BLOCK_RECORD
  5
1
100
AcDbSymbolTable
 70
     0
  0
BLOCK_RECORD
  5
17
100
AcDbSymbolTableRecord
100
AcDbBlockTableRecord
  2
*MODEL_SPACE
  0
BLOCK_RECORD
  5
14
100
AcDbSymbolTableRecord
100
AcDbBlockTableRecord
  2
*PAPER_SPACE
  0
ENDTAB
  0
ENDSEC
  0
SECTION
  2
BLOCKS
  0
BLOCK
  5
36
100
AcDbEntity
  8
0
 62
     6
100
AcDbBlockBegin
  2
*MODEL_SPACE
 70
     0
 10
0.0
 20
0.0
 30
0.0
  3
*MODEL_SPACE
  1

  0
ENDBLK
  5
37
100
AcDbEntity
  8
0
 62
     6
100
AcDbBlockEnd
  0
BLOCK
  5
34
100
AcDbEntity
 67
     1
  8
0
 62
     6
100
AcDbBlockBegin
  2
*PAPER_SPACE
 70
     0
 10
0.0
 20
0.0
 30
0.0
  3
*PAPER_SPACE
  1

  0
ENDBLK
  5
35
100
AcDbEntity
 67
     1
  8
0
 62
     6
100
AcDbBlockEnd
  0
ENDSEC
  0
SECTION
  2
ENTITIES
  0
TEXT
  5
8C6
100
AcDbEntity
  8
0
  6
BYBLOCK
 62
     0
100
AcDbText
 10
137.771014
 20
144.465313
 30
0.0
 40
1.5
  1
   
  7
ROMANS
 72
     1
 11
140.021014
 21
145.215313
 31
0.0
100
AcDbText
 73
     2
  0
TEXT
  5
8C8
100
AcDbEntity
  8
0
  6
BYBLOCK
 62
     0
100
AcDbText
 10
105.136326
 20
196.25
 30
0.0
 40
1.5
  1
  
  7
ROMANS
 72
     1
 11
106.636326
 21
197.0
 31
0.0
100
AcDbText
 73
     2
  0
TEXT
  5
8C9
100
AcDbEntity
  8
0
  6
BYBLOCK
 62
     0
100
AcDbText
 10
105.11769
 20
187.25
 30
0.0
 40
1.5
  1
  
  7
ROMANS
 72
     1
 11
106.61769
 21
188.0
 31
0.0
100
AcDbText
 73
     2
  0
TEXT
  5
8CA
100
AcDbEntity
  8
0
  6
BYBLOCK
 62
     0
100
AcDbText
 10
64.365403
 20
158.766292
 30
0.0
 40
1.5
  1
  
  7
ROMANS
 72
     1
 11
65.865403
 21
159.516292
 31
0.0
100
AcDbText
 73
     2
  0
CIRCLE
  5
8CB
100
AcDbEntity
  8
HIDDEN
 62
     1
100
AcDbCircle
 39
20.0
 10
134.909433
 20
68.794462
 30
0.0
 40
12.0
  0
CIRCLE
  5
8CC
100
AcDbEntity
  8
OBJECT
 62
     2
100
AcDbCircle
 39
20.0
 10
134.909433
 20
68.794462
 30
0.0
 40
14.0
  0
CIRCLE
  5
8CD
100
AcDbEntity
  8
CENTER
 62
     3
100
AcDbCircle
 39
20.0
 10
134.909433
 20
68.794462
 30
0.0
 40
13.25
  0
LINE
  5
8CE
100
AcDbEntity
  8
CENTER
 62
     3
100
AcDbLine
 10
133.409433
 20
68.794462
 30
0.0
 11
136.409433
 21
68.794462
 31
0.0
  0
LINE
  5
8CF
100
AcDbEntity
  8
CENTER
 62
     3
100
AcDbLine
 10
134.909433
 20
67.294462
 30
0.0
 11
134.909433
 21
70.294462
 31
0.0
  0
LINE
  5
8D0
100
AcDbEntity
  8
CENTER
 62
     3
100
AcDbLine
 10
131.909433
 20
68.794462
 30
0.0
 11
119.409433
 21
68.794462
 31
0.0
  0
LINE
  5
8D1
100
AcDbEntity
  8
CENTER
 62
     3
100
AcDbLine
 10
137.909433
 20
68.794462
 30
0.0
 11
150.409433
 21
68.794462
 31
0.0
  0
LINE
  5
8D2
100
AcDbEntity
  8
CENTER
 62
     3
100
AcDbLine
 10
134.909433
 20
65.794462
 30
0.0
 11
134.909433
 21
53.294462
 31
0.0
  0
LINE
  5
8D3
100
AcDbEntity
  8
CENTER
 62
     3
100
AcDbLine
 10
134.909433
 20
71.794462
 30
0.0
 11
134.909433
 21
84.294462
 31
0.0
  0
LWPOLYLINE
  5
8D4
100
AcDbEntity
  8
OBJECT
 62
     2
100
AcDbPolyline
 90
        6
 70
     1
 43
0.0
 39
20.0
 10
134.80118
 20
55.731962
 10
134.692927
 20
55.544462
 10
134.80118
 20
55.356962
 10
135.017687
 20
55.356962
 10
135.12594
 20
55.544462
 10
135.017687
 20
55.731962
  0
LWPOLYLINE
  5
8DC
100
AcDbEntity
  8
OBJECT
 62
     2
100
AcDbPolyline
 90
        6
 70
     1
 43
0.0
 39
20.0
 10
146.167764
 20
62.169462
 10
146.276017
 20
61.981962
 10
146.492523
 20
61.981962
 10
146.600776
 20
62.169462
 10
146.492523
 20
62.356962
 10
146.276017
 20
62.356962
  0
LWPOLYLINE
  5
8E4
100
AcDbEntity
  8
OBJECT
 62
     2
100
AcDbPolyline
 90
        6
 70
     1
 43
0.0
 39
20.0
 10
146.276017
 20
75.231962
 10
146.492523
 20
75.231962
 10
146.600776
 20
75.419462
 10
146.492523
 20
75.606962
 10
146.276017
 20
75.606962
 10
146.167764
 20
75.419462
  0
LWPOLYLINE
  5
8EC
100
AcDbEntity
  8
OBJECT
 62
     2
100
AcDbPolyline
 90
        6
 70
     1
 43
0.0
 39
20.0
 10
135.017687
 20
81.856962
 10
135.12594
 20
82.044462
 10
135.017687
 20
82.231962
 10
134.80118
 20
82.231962
 10
134.692927
 20
82.044462
 10
134.80118
 20
81.856962
  0
LWPOLYLINE
  5
8F4
100
AcDbEntity
  8
OBJECT
 62
     2
100
AcDbPolyline
 90
        6
 70
     1
 43
0.0
 39
20.0
 10
123.651103
 20
75.419462
 10
123.54285
 20
75.606962
 10
123.326344
 20
75.606962
 10
123.21809
 20
75.419462
 10
123.326344
 20
75.231962
 10
123.54285
 20
75.231962
  0
LWPOLYLINE
  5
8FC
100
AcDbEntity
  8
OBJECT
 62
     2
100
AcDbPolyline
 90
        6
 70
     1
 43
0.0
 39
20.0
 10
123.54285
 20
62.356962
 10
123.326344
 20
62.356962
 10
123.21809
 20
62.169462
 10
123.326344
 20
61.981962
 10
123.54285
 20
61.981962
 10
123.651103
 20
62.169462
  0
LINE
  5
904
100
AcDbEntity
  8
OBJECT
 62
     2
100
AcDbLine
 39
20.0
 10
196.15515
 20
54.794462
 30
0.0
 11
196.15515
 21
82.794462
 31
0.0
  0
LINE
  5
905
100
AcDbEntity
  8
OBJECT
 62
     2
100
AcDbLine
 39
20.0
 10
224.15515
 20
54.794462
 30
0.0
 11
224.15515
 21
82.794462
 31
0.0
  0
LINE
  5
906
100
AcDbEntity
  8
OBJECT
 62
     2
100
AcDbLine
 39
20.0
 10
196.15515
 20
54.794462
 30
0.0
 11
224.15515
 21
54.794462
 31
0.0
  0
LINE
  5
907
100
AcDbEntity
  8
OBJECT
 62
     2
100
AcDbLine
 39
20.0
 10
196.15515
 20
82.794462
 30
0.0
 11
224.15515
 21
82.794462
 31
0.0
  0
LINE
  5
908
100
AcDbEntity
  8
CENTER
 62
     3
100
AcDbLine
 39
20.0
 10
196.90515
 20
55.544462
 30
0.0
 11
196.90515
 21
82.044462
 31
0.0
  0
LINE
  5
909
100
AcDbEntity
  8
CENTER
 62
     3
100
AcDbLine
 39
20.0
 10
223.40515
 20
55.544462
 30
0.0
 11
223.40515
 21
82.044462
 31
0.0
  0
LINE
  5
90A
100
AcDbEntity
  8
HIDDEN
 62
     1
100
AcDbLine
 39
20.0
 10
198.15515
 20
56.794462
 30
0.0
 11
198.15515
 21
80.794462
 31
0.0
  0
LINE
  5
90B
100
AcDbEntity
  8
HIDDEN
 62
     1
100
AcDbLine
 39
20.0
 10
222.15515
 20
56.794462
 30
0.0
 11
222.15515
 21
80.794462
 31
0.0
  0
LINE
  5
90C
100
AcDbEntity
  8
HIDDEN
 62
     1
100
AcDbLine
 39
20.0
 10
198.15515
 20
80.794462
 30
0.0
 11
222.15515
 21
80.794462
 31
0.0
  0
LINE
  5
90D
100
AcDbEntity
  8
HIDDEN
 62
     1
100
AcDbLine
 39
20.0
 10
198.15515
 20
56.794462
 30
0.0
 11
222.15515
 21
56.794462
 31
0.0
  0
LINE
  5
90E
100
AcDbEntity
  8
CENTER
 62
     3
100
AcDbLine
 39
20.0
 10
196.90515
 20
55.544462
 30
0.0
 11
223.40515
 21
55.544462
 31
0.0
  0
LINE
  5
90F
100
AcDbEntity
  8
CENTER
 62
     3
100
AcDbLine
 39
20.0
 10
196.90515
 20
82.044462
 30
0.0
 11
223.40515
 21
82.044462
 31
0.0
  0
LINE
  5
910
100
AcDbEntity
  8
CENTER
 62
     3
100
AcDbLine
 39
20.0
 10
194.65515
 20
68.794462
 30
0.0
 11
225.65515
 21
68.794462
 31
0.0
  0
LINE
  5
911
100
AcDbEntity
  8
CENTER
 62
     3
100
AcDbLine
 39
20.0
 10
210.15515
 20
84.294462
 30
0.0
 11
210.15515
 21
53.294462
 31
0.0
  0
TEXT
  5
912
100
AcDbEntity
  8
DIM
 62
     6
100
AcDbText
 10
225.193212
 20
68.793848
 30
0.0
 40
1.125
  1
C
  7
ROMANS
100
AcDbText
  0
TEXT
  5
913
100
AcDbEntity
  8
DIM
 62
     6
100
AcDbText
 10
225.591598
 20
68.166126
 30
0.0
 40
1.125
  1
L
  7
ROMANS
100
AcDbText
  0
TEXT
  5
914
100
AcDbEntity
  8
DIM
 62
     6
100
AcDbText
 10
149.947496
 20
68.753571
 30
0.0
 40
1.125
  1
C
  7
ROMANS
100
AcDbText
  0
TEXT
  5
915
100
AcDbEntity
  8
DIM
 62
     6
100
AcDbText
 10
150.345882
 20
68.125849
 30
0.0
 40
1.125
  1
L
  7
ROMANS
100
AcDbText
  0
TEXT
  5
916
100
AcDbEntity
  8
DIM
 62
     6
100
AcDbText
 10
209.562978
 20
52.111087
 30
0.0
 40
1.125
  1
C
  7
ROMANS
100
AcDbText
  0
TEXT
  5
917
100
AcDbEntity
  8
DIM
 62
     6
100
AcDbText
 10
209.961364
 20
51.483365
 30
0.0
 40
1.125
  1
L
  7
ROMANS
100
AcDbText
  0
TEXT
  5
918
100
AcDbEntity
  8
DIM
 62
     6
100
AcDbText
 10
134.715647
 20
51.538867
 30
0.0
 40
1.125
  1
L
  7
ROMANS
100
AcDbText
  0
TEXT
  5
919
100
AcDbEntity
  8
DIM
 62
     6
100
AcDbText
 10
134.317262
 20
52.166589
 30
0.0
 40
1.125
  1
C
  7
ROMANS
100
AcDbText
  0
LWPOLYLINE
  5
91A
100
AcDbEntity
  8
DIM
 62
     2
100
AcDbPolyline
 90
        6
 70
     1
 43
0.0
 39
20.0
 10
210.046897
 20
55.731962
 10
209.938643
 20
55.544462
 10
210.046897
 20
55.356962
 10
210.263403
 20
55.356962
 10
210.371656
 20
55.544462
 10
210.263403
 20
55.731962
  0
LWPOLYLINE
  5
922
100
AcDbEntity
  8
DIM
 62
     2
100
AcDbPolyline
 90
        6
 70
     1
 43
0.0
 39
20.0
 10
223.296897
 20
64.315292
 10
223.188643
 20
64.127792
 10
223.296897
 20
63.940292
 10
223.513403
 20
63.940292
 10
223.621656
 20
64.127792
 10
223.513403
 20
64.315292
  0
LWPOLYLINE
  5
92A
100
AcDbEntity
  8
DIM
 62
     2
100
AcDbPolyline
 90
        6
 70
     1
 43
0.0
 39
20.0
 10
196.796897
 20
73.648632
 10
196.688643
 20
73.461132
 10
196.796897
 20
73.273632
 10
197.013403
 20
73.273632
 10
197.121656
 20
73.461132
 10
197.013403
 20
73.648632
  0
LWPOLYLINE
  5
932
100
AcDbEntity
  8
DIM
 62
     2
100
AcDbPolyline
 90
        6
 70
     1
 43
0.0
 39
20.0
 10
196.796897
 20
64.315292
 10
196.688643
 20
64.127792
 10
196.796897
 20
63.940292
 10
197.013403
 20
63.940292
 10
197.121656
 20
64.127792
 10
197.013403
 20
64.315292
  0
LWPOLYLINE
  5
93A
100
AcDbEntity
  8
DIM
 62
     2
100
AcDbPolyline
 90
        6
 70
     1
 43
0.0
 39
20.0
 10
210.046897
 20
82.231962
 10
209.938643
 20
82.044462
 10
210.046897
 20
81.856962
 10
210.263403
 20
81.856962
 10
210.371656
 20
82.044462
 10
210.263403
 20
82.231962
  0
LINE
  5
942
100
AcDbEntity
  8
DIM
 62
     6
100
AcDbLine
 10
154.854965
 20
86.584622
 30
0.0
 11
156.354965
 21
86.584622
 31
0.0
  0
TEXT
  5
943
100
AcDbEntity
  8
DIM
 62
     6
100
AcDbText
 10
157.854965
 20
85.834622
 30
0.0
 40
1.5
  1
A
  7
ROMAND
 11
157.854965
 21
86.584622
 31
0.0
100
AcDbText
 73
     2
  0
CIRCLE
  5
945
100
AcDbEntity
  8
DIM
 62
     6
100
AcDbCircle
 39
20.0
 10
158.532464
 20
86.483045
 30
0.0
 40
1.186877
  0
CIRCLE
  5
946
100
AcDbEntity
  8
DIM
 62
     6
100
AcDbCircle
 39
20.0
 10
158.532464
 20
47.541488
 30
0.0
 40
1.186877
  0
TEXT
  5
947
100
AcDbEntity
  8
DIM
 62
     6
100
AcDbText
 10
157.779877
 20
46.768064
 30
0.0
 40
1.5
  1
B
  7
ROMAND
 11
157.779877
 21
47.518064
 31
0.0
100
AcDbText
 73
     2
  0
LINE
  5
948
100
AcDbEntity
  8
DIM
 62
     6
100
AcDbLine
 10
154.854965
 20
47.390794
 30
0.0
 11
156.354965
 21
47.390794
 31
0.0
  0
TEXT
  5
949
100
AcDbEntity
  8
DIM
 62
     6
100
AcDbText
 10
141.488262
 20
62.455052
 30
0.0
 40
1.5
  1
~
 50
254.35458
  7
ROMANS
100
AcDbText
  0
SOLID
  5
94A
100
AcDbEntity
  8
DIM
 62
     6
100
AcDbTrace
 10
200.113819
 20
60.810083
 30
0.0
 11
199.855044
 21
61.23791
 31
0.0
 12
201.267911
 22
61.800322
 32
0.0
 13
201.267911
 23
61.800322
 33
0.0
  0
LINE
  5
94B
100
AcDbEntity
  8
DIM
 62
     6
100
AcDbLine
 10
201.267911
 20
61.800322
 30
0.0
 11
190.209618
 21
55.111606
 31
0.0
  0
LINE
  5
94C
100
AcDbEntity
  8
DIM
 62
     6
100
AcDbLine
 10
190.209618
 20
55.111606
 30
0.0
 11
188.709618
 21
55.111606
 31
0.0
  0
LINE
  5
94D
100
AcDbEntity
  8
DIM
 62
     6
100
AcDbLine
 10
196.763762
 20
73.591241
 30
0.0
 11
190.209618
 21
78.768578
 31
0.0
  0
SOLID
  5
94E
100
AcDbEntity
  8
DIM
 62
     6
100
AcDbTrace
 10
195.431734
 20
74.324864
 30
0.0
 11
195.741667
 21
74.717217
 31
0.0
 12
196.763762
 22
73.591241
 32
0.0
 13
196.763762
 23
73.591241
 33
0.0
  0
LINE
  5
94F
100
AcDbEntity
  8
DIM
 62
     6
100
AcDbLine
 10
190.209618
 20
78.768578
 30
0.0
 11
188.709618
 21
78.768578
 31
0.0
  0
CIRCLE
  5
950
100
AcDbEntity
  8
DIM
 62
     6
100
AcDbCircle
 39
20.0
 10
186.532119
 20
55.104091
 30
0.0
 40
1.186877
  0
CIRCLE
  5
951
100
AcDbEntity
  8
DIM
 62
     6
100
AcDbCircle
 39
20.0
 10
186.532119
 20
78.764306
 30
0.0
 40
1.186877
  0
TEXT
  5
952
100
AcDbEntity
  8
DIM
 62
     6
100
AcDbText
 10
200.202425
 20
62.03024
 30
0.0
 40
1.5
  1
~
 50
315.033608
  7
ROMANS
100
AcDbText
  0
TEXT
  5
953
100
AcDbEntity
  8
DIM
 62
     6
100
AcDbText
 10
185.71635
 20
78.034247
 30
0.0
 40
1.5
  1
C
  7
ROMAND
 11
185.71635
 21
78.784247
 31
0.0
100
AcDbText
 73
     2
  0
TEXT
  5
954
100
AcDbEntity
  8
DIM
 62
     6
100
AcDbText
 10
185.859473
 20
54.354219
 30
0.0
 40
1.5
  1
D
  7
ROMAND
 11
185.859473
 21
55.104219
 31
0.0
100
AcDbText
 73
     2
  0
LWPOLYLINE
  5
955
100
AcDbEntity
  8
DIM
 62
     2
100
AcDbPolyline
 90
        6
 70
     1
 43
0.0
 39
20.0
 10
223.513403
 20
73.648632
 10
223.621656
 20
73.461132
 10
223.513403
 20
73.273632
 10
223.296897
 20
73.273632
 10
223.188643
 20
73.461132
 10
223.296897
 20
73.648632
  0
TEXT
  5
95D
100
AcDbEntity
  8
0
  6
BYBLOCK
 62
     0
100
AcDbText
 10
1645.803088
 20
1700.549558
 30
0.0
 40
18.0
  1
   
  7
ROMANS
 72
     1
 11
1672.803088
 21
1709.549558
 31
0.0
100
AcDbText
 73
     2
  0
TEXT
  5
95E
100
AcDbEntity
  8
0
  6
BYBLOCK
 62
     0
100
AcDbText
 10
1254.186831
 20
2321.965808
 30
0.0
 40
18.0
  1
  
  7
ROMANS
 72
     1
 11
1272.186831
 21
2330.965808
 31
0.0
100
AcDbText
 73
     2
  0
TEXT
  5
95F
100
AcDbEntity
  8
0
  6
BYBLOCK
 62
     0
100
AcDbText
 10
1253.963199
 20
2213.965808
 30
0.0
 40
18.0
  1
  
  7
ROMANS
 72
     1
 11
1271.963199
 21
2222.965808
 31
0.0
100
AcDbText
 73
     2
  0
TEXT
  5
960
100
AcDbEntity
  8
0
  6
BYBLOCK
 62
     0
100
AcDbText
 10
764.935753
 20
1872.161312
 30
0.0
 40
18.0
  1
  
  7
ROMANS
 72
     1
 11
782.935753
 21
1881.161312
 31
0.0
100
AcDbText
 73
     2
  0
TEXT
  5
A97
100
AcDbEntity
  8
BORDER
 62
     7
100
AcDbText
 10
68.242206
 20
-45.529548
 30
0.0
 40
1.031594
  1

  7
ROMANC
100
AcDbText
  0
CIRCLE
  5
DFC
100
AcDbEntity
  8
DIM
 62
     6
100
AcDbCircle
 39
20.0
 10
166.093423
 20
37.722837
 30
0.0
 40
1.186877
  0
TEXT
  5
DFD
100
AcDbEntity
  8
DIM
 62
     6
100
AcDbText
 10
165.34631
 20
37.074414
 30
0.0
 40
1.5
  1
A
  7
ROMAND
 11
165.34631
 21
37.824414
 31
0.0
100
AcDbText
 73
     2
  0
CIRCLE
  5
DFE
100
AcDbEntity
  8
DIM
 62
     6
100
AcDbCircle
 39
20.0
 10
176.653835
 20
37.722837
 30
0.0
 40
1.186877
  0
TEXT
  5
DFF
100
AcDbEntity
  8
DIM
 62
     6
100
AcDbText
 10
175.976336
 20
36.927753
 30
0.0
 40
1.5
  1
B
  7
ROMAND
 11
175.976336
 21
37.677753
 31
0.0
100
AcDbText
 73
     2
  0
CIRCLE
  5
E00
100
AcDbEntity
  8
DIM
 62
     6
100
AcDbCircle
 39
20.0
 10
189.784943
 20
37.722837
 30
0.0
 40
1.186877
  0
TEXT
  5
E01
100
AcDbEntity
  8
DIM
 62
     6
100
AcDbText
 10
189.013694
 20
36.931129
 30
0.0
 40
1.5
  1
C
  7
ROMAND
 11
189.013694
 21
37.681129
 31
0.0
100
AcDbText
 73
     2
  0
CIRCLE
  5
E02
100
AcDbEntity
  8
DIM
 62
     6
100
AcDbCircle
 39
20.0
 10
201.566461
 20
37.722837
 30
0.0
 40
1.186877
  0
TEXT
  5
E03
100
AcDbEntity
  8
DIM
 62
     6
100
AcDbText
 10
200.78995
 20
36.951392
 30
0.0
 40
1.5
  1
D
  7
ROMAND
 11
200.78995
 21
37.701392
 31
0.0
100
AcDbText
 73
     2
  0
TEXT
  5
E04
100
AcDbEntity
  8
DIM
 62
     6
100
AcDbText
 10
163.392582
 20
12.404203
 30
0.0
 40
1.5
  1
24
  7
ROMANS
100
AcDbText
  0
TEXT
  5
E05
100
AcDbEntity
  8
DIM
 62
     6
100
AcDbText
 10
163.392582
 20
6.404203
 30
0.0
 40
1.5
  1
30
  7
ROMANS
100
AcDbText
  0
TEXT
  5
E06
100
AcDbEntity
  8
DIM
 62
     6
100
AcDbText
 10
163.392582
 20
4.404203
 30
0.0
 40
1.5
  1
30x30
  7
ROMANS
100
AcDbText
  0
TEXT
  5
E07
100
AcDbEntity
  8
DIM
 62
     6
100
AcDbText
 10
163.392582
 20
10.404203
 30
0.0
 40
1.5
  1
24x24
  7
ROMANS
100
AcDbText
  0
TEXT
  5
E08
100
AcDbEntity
  8
DIM
 62
     6
100
AcDbText
 10
163.392582
 20
0.404203
 30
0.0
 40
1.5
  1
36
  7
ROMANS
100
AcDbText
  0
TEXT
  5
E09
100
AcDbEntity
  8
DIM
 62
     6
100
AcDbText
 10
163.392582
 20
-5.595797
 30
0.0
 40
1.5
  1
42
  7
ROMANS
100
AcDbText
  0
TEXT
  5
E0A
100
AcDbEntity
  8
DIM
 62
     6
100
AcDbText
 10
163.392582
 20
-7.595797
 30
0.0
 40
1.5
  1
42x42
  7
ROMANS
100
AcDbText
  0
TEXT
  5
E0B
100
AcDbEntity
  8
DIM
 62
     6
100
AcDbText
 10
163.392582
 20
-1.595797
 30
0.0
 40
1.5
  1
36x36
  7
ROMANS
100
AcDbText
  0
TEXT
  5
E0C
100
AcDbEntity
  8
DIM
 62
     6
100
AcDbText
 10
163.392582
 20
-11.595797
 30
0.0
 40
1.5
  1
48
  7
ROMANS
100
AcDbText
  0
TEXT
  5
E0D
100
AcDbEntity
  8
DIM
 62
     6
100
AcDbText
 10
163.392582
 20
-17.595797
 30
0.0
 40
1.5
  1
60
  7
ROMANS
100
AcDbText
  0
TEXT
  5
E0E
100
AcDbEntity
  8
DIM
 62
     6
100
AcDbText
 10
163.392582
 20
-19.595797
 30
0.0
 40
1.5
  1
60x60
  7
ROMANS
100
AcDbText
  0
TEXT
  5
E0F
100
AcDbEntity
  8
DIM
 62
     6
100
AcDbText
 10
163.392582
 20
-13.595797
 30
0.0
 40
1.5
  1
48x48
  7
ROMANS
100
AcDbText
  0
TEXT
  5
E10
100
AcDbEntity
  8
DIM
 62
     6
100
AcDbText
 10
163.392582
 20
-23.595797
 30
0.0
 40
1.5
  1
72
  7
ROMANS
100
AcDbText
  0
TEXT
  5
E11
100
AcDbEntity
  8
DIM
 62
     6
100
AcDbText
 10
163.392582
 20
-25.595797
 30
0.0
 40
1.5
  1
72x72
  7
ROMANS
100
AcDbText
  0
TEXT
  5
E12
100
AcDbEntity
  8
DIM
 62
     6
100
AcDbText
 10
151.620159
 20
10.404203
 30
0.0
 40
1.5
  1
SQUARE
  7
ROMANS
100
AcDbText
  0
TEXT
  5
E13
100
AcDbEntity
  8
DIM
 62
     6
100
AcDbText
 10
135.404334
 20
6.404203
 30
0.0
 40
1.5
  1
C30WS
  7
ROMANS
100
AcDbText
  0
TEXT
  5
E14
100
AcDbEntity
  8
DIM
 62
     6
100
AcDbText
 10
135.404334
 20
-5.595797
 30
0.0
 40
1.5
  1
C42WS
  7
ROMANS
100
AcDbText
  0
TEXT
  5
E15
100
AcDbEntity
  8
DIM
 62
     6
100
AcDbText
 10
135.404334
 20
0.404203
 30
0.0
 40
1.5
  1
C36WS
  7
ROMANS
100
AcDbText
  0
TEXT
  5
E16
100
AcDbEntity
  8
DIM
 62
     6
100
AcDbText
 10
135.404334
 20
-17.595797
 30
0.0
 40
1.5
  1
C60WS
  7
ROMANS
100
AcDbText
  0
TEXT
  5
E17
100
AcDbEntity
  8
DIM
 62
     6
100
AcDbText
 10
135.404334
 20
-11.595797
 30
0.0
 40
1.5
  1
C48WS
  7
ROMANS
100
AcDbText
  0
TEXT
  5
E18
100
AcDbEntity
  8
DIM
 62
     6
100
AcDbText
 10
135.404334
 20
-23.595797
 30
0.0
 40
1.5
  1
C72WS
  7
ROMANS
100
AcDbText
  0
TEXT
  5
E19
100
AcDbEntity
  8
DIM
 62
     6
100
AcDbText
 10
151.620159
 20
6.404203
 30
0.0
 40
1.5
  1
ROUND
  7
ROMANS
100
AcDbText
  0
TEXT
  5
E1A
100
AcDbEntity
  8
DIM
 62
     6
100
AcDbText
 10
151.620159
 20
-5.595797
 30
0.0
 40
1.5
  1
ROUND
  7
ROMANS
100
AcDbText
  0
TEXT
  5
E1B
100
AcDbEntity
  8
DIM
 62
     6
100
AcDbText
 10
151.620159
 20
0.404203
 30
0.0
 40
1.5
  1
ROUND
  7
ROMANS
100
AcDbText
  0
TEXT
  5
E1C
100
AcDbEntity
  8
DIM
 62
     6
100
AcDbText
 10
151.620159
 20
-7.595797
 30
0.0
 40
1.5
  1
SQUARE
  7
ROMANS
100
AcDbText
  0
TEXT
  5
E1D
100
AcDbEntity
  8
DIM
 62
     6
100
AcDbText
 10
151.620159
 20
-1.595797
 30
0.0
 40
1.5
  1
SQUARE
  7
ROMANS
100
AcDbText
  0
TEXT
  5
E1E
100
AcDbEntity
  8
DIM
 62
     6
100
AcDbText
 10
151.620159
 20
4.404203
 30
0.0
 40
1.5
  1
SQUARE
  7
ROMANS
100
AcDbText
  0
TEXT
  5
E1F
100
AcDbEntity
  8
DIM
 62
     6
100
AcDbText
 10
151.620159
 20
-17.595797
 30
0.0
 40
1.5
  1
ROUND
  7
ROMANS
100
AcDbText
  0
TEXT
  5
E20
100
AcDbEntity
  8
DIM
 62
     6
100
AcDbText
 10
151.620159
 20
-11.595797
 30
0.0
 40
1.5
  1
ROUND
  7
ROMANS
100
AcDbText
  0
TEXT
  5
E21
100
AcDbEntity
  8
DIM
 62
     6
100
AcDbText
 10
151.620159
 20
-19.595797
 30
0.0
 40
1.5
  1
SQUARE
  7
ROMANS
100
AcDbText
  0
TEXT
  5
E22
100
AcDbEntity
  8
DIM
 62
     6
100
AcDbText
 10
151.620159
 20
-13.595797
 30
0.0
 40
1.5
  1
SQUARE
  7
ROMANS
100
AcDbText
  0
TEXT
  5
E23
100
AcDbEntity
  8
DIM
 62
     6
100
AcDbText
 10
151.620159
 20
-23.595797
 30
0.0
 40
1.5
  1
ROUND
  7
ROMANS
100
AcDbText
  0
TEXT
  5
E24
100
AcDbEntity
  8
DIM
 62
     6
100
AcDbText
 10
151.620159
 20
-25.595797
 30
0.0
 40
1.5
  1
SQUARE
  7
ROMANS
100
AcDbText
  0
TEXT
  5
E25
100
AcDbEntity
  8
DIM
 62
     6
100
AcDbText
 10
135.404334
 20
12.404203
 30
0.0
 40
1.5
  1
C24WS
  7
ROMANS
100
AcDbText
  0
TEXT
  5
E26
100
AcDbEntity
  8
DIM
 62
     6
100
AcDbText
 10
151.620159
 20
12.404203
 30
0.0
 40
1.5
  1
ROUND
  7
ROMANS
100
AcDbText
  0
TEXT
  5
E27
100
AcDbEntity
  8
DIM
 62
     6
100
AcDbText
 10
197.767917
 20
10.404203
 30
0.0
 40
1.5
  1
 .25
  7
ROMANS
100
AcDbText
  0
TEXT
  5
E28
100
AcDbEntity
  8
DIM
 62
     6
100
AcDbText
 10
184.366768
 20
10.404203
 30
0.0
 40
1.5
  1
26.5x26.5
  7
ROMANS
100
AcDbText
  0
TEXT
  5
E29
100
AcDbEntity
  8
DIM
 62
     6
100
AcDbText
 10
172.751783
 20
10.404203
 30
0.0
 40
1.5
  1
28x28
  7
ROMANS
100
AcDbText
  0
TEXT
  5
E2A
100
AcDbEntity
  8
DIM
 62
     6
100
AcDbText
 10
184.366768
 20
4.404203
 30
0.0
 40
1.5
  1
32.5x32.5
  7
ROMANS
100
AcDbText
  0
TEXT
  5
E2B
100
AcDbEntity
  8
DIM
 62
     6
100
AcDbText
 10
184.366768
 20
-7.595797
 30
0.0
 40
1.5
  1
44.5x44.5
  7
ROMANS
100
AcDbText
  0
TEXT
  5
E2C
100
AcDbEntity
  8
DIM
 62
     6
100
AcDbText
 10
184.366768
 20
-1.595797
 30
0.0
 40
1.5
  1
38.5x38.5
  7
ROMANS
100
AcDbText
  0
TEXT
  5
E2D
100
AcDbEntity
  8
DIM
 62
     6
100
AcDbText
 10
184.366768
 20
-19.595797
 30
0.0
 40
1.5
  1
63.0x63.0
  7
ROMANS
100
AcDbText
  0
TEXT
  5
E2E
100
AcDbEntity
  8
DIM
 62
     6
100
AcDbText
 10
184.366768
 20
-13.595797
 30
0.0
 40
1.5
  1
51.0x51.0
  7
ROMANS
100
AcDbText
  0
TEXT
  5
E2F
100
AcDbEntity
  8
DIM
 62
     6
100
AcDbText
 10
184.366768
 20
-25.595797
 30
0.0
 40
1.5
  1
75.0x75.0
  7
ROMANS
100
AcDbText
  0
TEXT
  5
E30
100
AcDbEntity
  8
DIM
 62
     6
100
AcDbText
 10
172.751783
 20
4.404203
 30
0.0
 40
1.5
  1
34x34
  7
ROMANS
100
AcDbText
  0
TEXT
  5
E31
100
AcDbEntity
  8
DIM
 62
     6
100
AcDbText
 10
172.751783
 20
-7.595797
 30
0.0
 40
1.5
  1
46x46
  7
ROMANS
100
AcDbText
  0
TEXT
  5
E32
100
AcDbEntity
  8
DIM
 62
     6
100
AcDbText
 10
172.751783
 20
-1.595797
 30
0.0
 40
1.5
  1
40x40
  7
ROMANS
100
AcDbText
  0
TEXT
  5
E33
100
AcDbEntity
  8
DIM
 62
     6
100
AcDbText
 10
172.751783
 20
-19.595797
 30
0.0
 40
1.5
  1
66x66
  7
ROMANS
100
AcDbText
  0
TEXT
  5
E34
100
AcDbEntity
  8
DIM
 62
     6
100
AcDbText
 10
172.751783
 20
-13.595797
 30
0.0
 40
1.5
  1
54x54
  7
ROMANS
100
AcDbText
  0
TEXT
  5
E35
100
AcDbEntity
  8
DIM
 62
     6
100
AcDbText
 10
172.751783
 20
-25.595797
 30
0.0
 40
1.5
  1
78x78
  7
ROMANS
100
AcDbText
  0
TEXT
  5
E36
100
AcDbEntity
  8
DIM
 62
     6
100
AcDbText
 10
172.751783
 20
6.404203
 30
0.0
 40
1.5
  1
34
  7
ROMANS
100
AcDbText
  0
TEXT
  5
E37
100
AcDbEntity
  8
DIM
 62
     6
100
AcDbText
 10
172.751783
 20
0.404203
 30
0.0
 40
1.5
  1
40
  7
ROMANS
100
AcDbText
  0
TEXT
  5
E38
100
AcDbEntity
  8
DIM
 62
     6
100
AcDbText
 10
172.751783
 20
-5.595797
 30
0.0
 40
1.5
  1
46
  7
ROMANS
100
AcDbText
  0
TEXT
  5
E39
100
AcDbEntity
  8
DIM
 62
     6
100
AcDbText
 10
172.751783
 20
-11.595797
 30
0.0
 40
1.5
  1
54
  7
ROMANS
100
AcDbText
  0
TEXT
  5
E3A
100
AcDbEntity
  8
DIM
 62
     6
100
AcDbText
 10
172.751783
 20
-17.595797
 30
0.0
 40
1.5
  1
66
  7
ROMANS
100
AcDbText
  0
TEXT
  5
E3B
100
AcDbEntity
  8
DIM
 62
     6
100
AcDbText
 10
172.751783
 20
-23.595797
 30
0.0
 40
1.5
  1
78
  7
ROMANS
100
AcDbText
  0
TEXT
  5
E3C
100
AcDbEntity
  8
DIM
 62
     6
100
AcDbText
 10
184.366768
 20
6.404203
 30
0.0
 40
1.5
  1
32.5
  7
ROMANS
100
AcDbText
  0
TEXT
  5
E3D
100
AcDbEntity
  8
DIM
 62
     6
100
AcDbText
 10
184.366768
 20
0.404203
 30
0.0
 40
1.5
  1
38.5
  7
ROMANS
100
AcDbText
  0
TEXT
  5
E3E
100
AcDbEntity
  8
DIM
 62
     6
100
AcDbText
 10
184.366768
 20
-5.595797
 30
0.0
 40
1.5
  1
44.5
  7
ROMANS
100
AcDbText
  0
TEXT
  5
E3F
100
AcDbEntity
  8
DIM
 62
     6
100
AcDbText
 10
184.366768
 20
-11.595797
 30
0.0
 40
1.5
  1
51.0
  7
ROMANS
100
AcDbText
  0
TEXT
  5
E40
100
AcDbEntity
  8
DIM
 62
     6
100
AcDbText
 10
184.366768
 20
-17.595797
 30
0.0
 40
1.5
  1
63.0
  7
ROMANS
100
AcDbText
  0
TEXT
  5
E41
100
AcDbEntity
  8
DIM
 62
     6
100
AcDbText
 10
184.366768
 20
-23.595797
 30
0.0
 40
1.5
  1
75.0
  7
ROMANS
100
AcDbText
  0
TEXT
  5
E42
100
AcDbEntity
  8
DIM
 62
     6
100
AcDbText
 10
197.767917
 20
4.404203
 30
0.0
 40
1.5
  1
 .25
  7
ROMANS
100
AcDbText
  0
TEXT
  5
E43
100
AcDbEntity
  8
DIM
 62
     6
100
AcDbText
 10
197.767917
 20
6.404203
 30
0.0
 40
1.5
  1
 .25
  7
ROMANS
100
AcDbText
  0
TEXT
  5
E44
100
AcDbEntity
  8
DIM
 62
     6
100
AcDbText
 10
197.767917
 20
-7.595797
 30
0.0
 40
1.5
  1
 .25
  7
ROMANS
100
AcDbText
  0
TEXT
  5
E45
100
AcDbEntity
  8
DIM
 62
     6
100
AcDbText
 10
197.767917
 20
-5.595797
 30
0.0
 40
1.5
  1
 .25
  7
ROMANS
100
AcDbText
  0
TEXT
  5
E46
100
AcDbEntity
  8
DIM
 62
     6
100
AcDbText
 10
197.767917
 20
-1.595797
 30
0.0
 40
1.5
  1
 .25
  7
ROMANS
100
AcDbText
  0
TEXT
  5
E47
100
AcDbEntity
  8
DIM
 62
     6
100
AcDbText
 10
197.767917
 20
0.404203
 30
0.0
 40
1.5
  1
 .25
  7
ROMANS
100
AcDbText
  0
TEXT
  5
E48
100
AcDbEntity
  8
DIM
 62
     6
100
AcDbText
 10
197.767917
 20
-13.595797
 30
0.0
 40
1.5
  1
 .25
  7
ROMANS
100
AcDbText
  0
TEXT
  5
E49
100
AcDbEntity
  8
DIM
 62
     6
100
AcDbText
 10
197.767917
 20
-11.595797
 30
0.0
 40
1.5
  1
 .25
  7
ROMANS
100
AcDbText
  0
TEXT
  5
E4A
100
AcDbEntity
  8
DIM
 62
     6
100
AcDbText
 10
197.767917
 20
-19.595797
 30
0.0
 40
1.5
  1
 .375
  7
ROMANS
100
AcDbText
  0
TEXT
  5
E4B
100
AcDbEntity
  8
DIM
 62
     6
100
AcDbText
 10
197.767917
 20
-17.595797
 30
0.0
 40
1.5
  1
 .375
  7
ROMANS
100
AcDbText
  0
TEXT
  5
E4C
100
AcDbEntity
  8
DIM
 62
     6
100
AcDbText
 10
197.767917
 20
-23.595797
 30
0.0
 40
1.5
  1
 .375
  7
ROMANS
100
AcDbText
  0
TEXT
  5
E4D
100
AcDbEntity
  8
DIM
 62
     6
100
AcDbText
 10
197.767917
 20
-25.595797
 30
0.0
 40
1.5
  1
 .375
  7
ROMANS
100
AcDbText
  0
TEXT
  5
E4E
100
AcDbEntity
  8
DIM
 62
     6
100
AcDbText
 10
172.751783
 20
12.404203
 30
0.0
 40
1.5
  1
28
  7
ROMANS
100
AcDbText
  0
TEXT
  5
E4F
100
AcDbEntity
  8
DIM
 62
     6
100
AcDbText
 10
184.366768
 20
12.404203
 30
0.0
 40
1.5
  1
26.5
  7
ROMANS
100
AcDbText
  0
TEXT
  5
E50
100
AcDbEntity
  8
DIM
 62
     6
100
AcDbText
 10
197.767917
 20
12.404203
 30
0.0
 40
1.5
  1
 .25
  7
ROMANS
100
AcDbText
  0
TEXT
  5
E51
100
AcDbEntity
  8
DIM
 62
     6
100
AcDbText
 10
141.28065
 20
-29.650535
 30
0.0
 40
1.125
  1
ALL DIMENSIONS IN INCHES
  7
ROMANS
100
AcDbText
  0
TEXT
  5
E53
100
AcDbEntity
  8
DIM
 62
     6
100
AcDbText
 10
140.438032
 20
97.815273
 30
0.0
 40
3.0
  1
SOLID STEEL BASIN COVER
  7
ROMAND
 72
     1
 11
171.652318
 21
97.815273
 31
0.0
100
AcDbText
  0
TEXT
  5
E54
100
AcDbEntity
  8
DIM
 62
     6
100
AcDbText
 10
148.509461
 20
94.68169
 30
0.0
 40
1.5
  1
STAINLESS STEEL HARDWARE STANDARD
  7
ROMAND
 72
     1
 11
171.652318
 21
94.68169
 31
0.0
100
AcDbText
  0
TEXT
  5
E55
100
AcDbEntity
  8
DIM
 62
     6
100
AcDbText
 10
157.795175
 20
92.253119
 30
0.0
 40
1.5
  1
GASKET TAPE PROVIDED
  7
ROMAND
 72
     1
 11
171.652318
 21
92.253119
 31
0.0
100
AcDbText
  0
TEXT
  5
E56
100
AcDbEntity
  8
DIM
 62
     6
100
AcDbText
 10
157.428928
 20
70.87004
 30
0.0
 40
1.5
  1
(6) 9/16" DIA. 
  7
ROMAND
100
AcDbText
  0
TEXT
  5
E57
100
AcDbEntity
  8
DIM
 62
     6
100
AcDbText
 10
157.428928
 20
68.262594
 30
0.0
 40
1.5
  1
HOLES
  7
ROMAND
100
AcDbText
  0
LINE
  5
E58
100
AcDbEntity
  8
DIM
 62
     6
100
AcDbLine
 39
20.0
 10
150.637544
 20
39.737887
 30
0.0
 11
150.637544
 21
-26.56498
 31
0.0
  0
LWPOLYLINE
  5
E59
100
AcDbEntity
  8
DIM
 62
     6
100
AcDbPolyline
 90
        2
 70
     0
 43
0.25
 39
20.0
 10
134.532276
 20
39.737887
 10
134.532276
 20
-26.56498
  0
LINE
  5
E5D
100
AcDbEntity
  8
DIM
 62
     6
100
AcDbLine
 39
20.0
 10
161.404187
 20
39.737887
 30
0.0
 11
161.404187
 21
-26.56498
 31
0.0
  0
LINE
  5
E5E
100
AcDbEntity
  8
DIM
 62
     6
100
AcDbLine
 39
20.0
 10
170.871397
 20
39.737887
 30
0.0
 11
170.871397
 21
-26.56498
 31
0.0
  0
LINE
  5
E5F
100
AcDbEntity
  8
DIM
 62
     6
100
AcDbLine
 39
20.0
 10
183.151275
 20
39.737887
 30
0.0
 11
183.151275
 21
-26.56498
 31
0.0
  0
LINE
  5
E60
100
AcDbEntity
  8
DIM
 62
     6
100
AcDbLine
 39
20.0
 10
196.516752
 20
39.737887
 30
0.0
 11
196.516752
 21
-26.56498
 31
0.0
  0
LWPOLYLINE
  5
E61
100
AcDbEntity
  8
DIM
 62
     6
100
AcDbPolyline
 90
        2
 70
     0
 43
0.25
 39
20.0
 10
206.656732
 20
39.737887
 10
206.656732
 20
-26.56498
  0
LWPOLYLINE
  5
E65
100
AcDbEntity
  8
DIM
 62
     6
100
AcDbPolyline
 90
        2
 70
     0
 43
0.25
 39
20.0
 10
134.532276
 20
39.737887
 10
206.656732
 20
39.737887
  0
LWPOLYLINE
  5
E69
100
AcDbEntity
  8
DIM
 62
     6
100
AcDbPolyline
 90
        2
 70
     0
 43
0.25
 39
20.0
 10
134.393241
 20
15.43502
 10
206.656732
 20
15.43502
  0
LWPOLYLINE
  5
E6D
100
AcDbEntity
  8
DIM
 62
     6
100
AcDbPolyline
 90
        2
 70
     0
 43
0.25
 39
20.0
 10
134.393241
 20
9.43502
 10
206.656732
 20
9.43502
  0
LWPOLYLINE
  5
E71
100
AcDbEntity
  8
DIM
 62
     6
100
AcDbPolyline
 90
        2
 70
     0
 43
0.25
 39
20.0
 10
134.393241
 20
3.43502
 10
206.656732
 20
3.43502
  0
LWPOLYLINE
  5
E75
100
AcDbEntity
  8
DIM
 62
     6
100
AcDbPolyline
 90
        2
 70
     0
 43
0.25
 39
20.0
 10
134.393241
 20
-2.56498
 10
206.656732
 20
-2.56498
  0
LWPOLYLINE
  5
E79
100
AcDbEntity
  8
DIM
 62
     6
100
AcDbPolyline
 90
        2
 70
     0
 43
0.25
 39
20.0
 10
134.393241
 20
-8.56498
 10
206.656732
 20
-8.56498
  0
LWPOLYLINE
  5
E7D
100
AcDbEntity
  8
DIM
 62
     6
100
AcDbPolyline
 90
        2
 70
     0
 43
0.25
 39
20.0
 10
134.393241
 20
-14.56498
 10
206.656732
 20
-14.56498
  0
LWPOLYLINE
  5
E81
100
AcDbEntity
  8
DIM
 62
     6
100
AcDbPolyline
 90
        2
 70
     0
 43
0.25
 39
20.0
 10
134.393241
 20
-20.56498
 10
206.656732
 20
-20.56498
  0
LWPOLYLINE
  5
E85
100
AcDbEntity
  8
DIM
 62
     6
100
AcDbPolyline
 90
        2
 70
     0
 43
0.25
 39
20.0
 10
134.393241
 20
-26.56498
 10
206.656732
 20
-26.56498
  0
TEXT
  5
E89
100
AcDbEntity
  8
DIM
 62
     6
100
AcDbText
 10
142.94058
 20
29.964329
 30
0.0
 40
1.5
  1
PART
  7
ROMAND
 72
     1
 11
145.762008
 21
29.964329
 31
0.0
100
AcDbText
  0
TEXT
  5
E8A
100
AcDbEntity
  8
DIM
 62
     6
100
AcDbText
 10
143.797722
 20
27.232891
 30
0.0
 40
1.5
  1
NO.
  7
ROMAND
 72
     1
 11
145.762008
 21
27.232891
 31
0.0
100
AcDbText
  0
TEXT
  5
E8B
100
AcDbEntity
  8
DIM
 62
     6
100
AcDbText
 10
152.735152
 20
27.729733
 30
0.0
 40
1.5
  1
STYLE
  7
ROMAND
 72
     1
 11
156.020866
 21
27.729733
 31
0.0
100
AcDbText
  0
TEXT
  5
E8C
100
AcDbEntity
  8
DIM
 62
     6
100
AcDbText
 10
162.887792
 20
32.547501
 30
0.0
 40
1.5
  1
BASIN
  7
ROMAND
 72
     1
 11
166.137792
 21
32.547501
 31
0.0
100
AcDbText
  0
TEXT
  5
E8D
100
AcDbEntity
  8
DIM
 62
     6
100
AcDbText
 10
162.530649
 20
30.118929
 30
0.0
 40
1.5
  1
INSIDE
  7
ROMAND
 72
     1
 11
166.137792
 21
30.118929
 31
0.0
100
AcDbText
  0
TEXT
  5
E8E
100
AcDbEntity
  8
DIM
 62
     6
100
AcDbText
 10
163.816363
 20
27.690358
 30
0.0
 40
1.5
  1
DIM.
  7
ROMAND
 72
     1
 11
166.137792
 21
27.690358
 31
0.0
100
AcDbText
  0
TEXT
  5
E8F
100
AcDbEntity
  8
DIM
 62
     6
100
AcDbText
 10
172.116098
 20
30.476798
 30
0.0
 40
1.5
  1
OUTSIDE
  7
ROMAND
 72
     1
 11
176.758955
 21
30.476798
 31
0.0
100
AcDbText
  0
TEXT
  5
E90
100
AcDbEntity
  8
DIM
 62
     6
100
AcDbText
 10
174.437527
 20
27.74536
 30
0.0
 40
1.5
  1
DIM.
  7
ROMAND
 72
     1
 11
176.758955
 21
27.74536
 31
0.0
100
AcDbText
  0
TEXT
  5
E91
100
AcDbEntity
  8
DIM
 62
     6
100
AcDbText
 10
187.048299
 20
30.86115
 30
0.0
 40
1.5
  1
BOLT
  7
ROMAND
 72
     1
 11
189.834014
 21
30.86115
 31
0.0
100
AcDbText
  0
TEXT
  5
E92
100
AcDbEntity
  8
DIM
 62
     6
100
AcDbText
 10
186.012585
 20
28.129712
 30
0.0
 40
1.5
  1
CIRCLE
  7
ROMAND
 72
     1
 11
189.834014
 21
28.129712
 31
0.0
100
AcDbText
  0
TEXT
  5
E93
100
AcDbEntity
  8
DIM
 62
     6
100
AcDbText
 10
196.978475
 20
30.887648
 30
0.0
 40
1.5
  1
MATERIAL
 41
0.890236
  7
ROMAND
 72
     5
 11
206.198777
 21
30.887648
 31
0.0
100
AcDbText
  0
TEXT
  5
E94
100
AcDbEntity
  8
DIM
 62
     6
100
AcDbText
 10
196.978475
 20
28.15621
 30
0.0
 40
1.5
  1
THICKNESS
 41
0.768359
  7
ROMAND
 72
     5
 11
206.198777
 21
28.15621
 31
0.0
100
AcDbText
  0
CIRCLE
  5
E95
100
AcDbEntity
  8
DIM
 62
     6
100
AcDbCircle
 39
20.0
 10
186.532119
 20
61.532004
 30
0.0
 40
1.186877
  0
LINE
  5
E96
100
AcDbEntity
  8
DIM
 62
     6
100
AcDbLine
 10
190.209618
 20
61.539519
 30
0.0
 11
188.709618
 21
61.539519
 31
0.0
  0
TEXT
  5
E97
100
AcDbEntity
  8
DIM
 62
     6
100
AcDbText
 10
185.859473
 20
60.782131
 30
0.0
 40
1.5
  1
A
  7
ROMAND
 11
185.859473
 21
61.532131
 31
0.0
100
AcDbText
 73
     2
  0
CIRCLE
  5
E98
100
AcDbEntity
  8
DIM
 62
     6
100
AcDbCircle
 39
20.0
 10
186.532119
 20
72.497093
 30
0.0
 40
1.186877
  0
TEXT
  5
E99
100
AcDbEntity
  8
DIM
 62
     6
100
AcDbText
 10
185.71635
 20
71.767035
 30
0.0
 40
1.5
  1
B
  7
ROMAND
 11
185.71635
 21
72.517035
 31
0.0
100
AcDbText
 73
     2
  0
LINE
  5
E9A
100
AcDbEntity
  8
DIM
 62
     6
100
AcDbLine
 10
190.209618
 20
72.501366
 30
0.0
 11
188.709618
 21
72.501366
 31
0.0
  0
SOLID
  5
E9B
100
AcDbEntity
  8
DIM
 62
     6
100
AcDbTrace
 10
194.890093
 20
70.667767
 30
0.0
 11
194.684784
 21
70.211863
 31
0.0
 12
196.15515
 22
69.823888
 32
0.0
 13
196.15515
 23
69.823888
 33
0.0
  0
LINE
  5
E9C
100
AcDbEntity
  8
DIM
 62
     6
100
AcDbLine
 10
194.787439
 20
70.439815
 30
0.0
 11
190.209618
 21
72.501366
 31
0.0
  0
SOLID
  5
E9D
100
AcDbEntity
  8
DIM
 62
     6
100
AcDbTrace
 10
196.639754
 20
63.42988
 30
0.0
 11
196.762787
 21
62.945253
 31
0.0
 12
198.15515
 22
63.556666
 32
0.0
 13
198.15515
 23
63.556666
 33
0.0
  0
LINE
  5
E9E
100
AcDbEntity
  8
DIM
 62
     6
100
AcDbLine
 10
196.70127
 20
63.187567
 30
0.0
 11
190.209618
 21
61.539519
 31
0.0
  0
CIRCLE
  5
E9F
100
AcDbEntity
  8
DIM
 62
     6
100
AcDbCircle
 39
20.0
 10
158.532464
 20
56.611995
 30
0.0
 40
1.186877
  0
LINE
  5
EA0
100
AcDbEntity
  8
DIM
 62
     6
100
AcDbLine
 10
154.854965
 20
56.461301
 30
0.0
 11
156.354965
 21
56.461301
 31
0.0
  0
TEXT
  5
EA1
100
AcDbEntity
  8
DIM
 62
     6
100
AcDbText
 10
157.779877
 20
55.838571
 30
0.0
 40
1.5
  1
D
  7
ROMAND
 11
157.779877
 21
56.588571
 31
0.0
100
AcDbText
 73
     2
  0
SOLID
  5
EA2
100
AcDbEntity
  8
DIM
 62
     6
100
AcDbTrace
 10
143.302435
 20
60.589033
 30
0.0
 11
143.480229
 21
61.056354
 31
0.0
 12
141.989368
 22
61.356077
 32
0.0
 13
141.989368
 23
61.356077
 33
0.0
  0
LINE
  5
EA3
100
AcDbEntity
  8
DIM
 62
     6
100
AcDbLine
 10
143.391332
 20
60.822694
 30
0.0
 11
154.854965
 21
56.461301
 31
0.0
  0
SOLID
  5
EA4
100
AcDbEntity
  8
DIM
 62
     6
100
AcDbTrace
 10
143.707981
 20
78.855778
 30
0.0
 11
143.430706
 21
79.271853
 31
0.0
 12
142.321118
 22
78.23199
 32
0.0
 13
142.321118
 23
78.23199
 33
0.0
  0
LINE
  5
EA5
100
AcDbEntity
  8
DIM
 62
     6
100
AcDbLine
 10
143.569343
 20
79.063815
 30
0.0
 11
154.854965
 21
86.584622
 31
0.0
  0
CIRCLE
  5
EA6
100
AcDbEntity
  8
DIM
 62
     6
100
AcDbCircle
 39
20.0
 10
158.532464
 20
81.971583
 30
0.0
 40
1.186877
  0
TEXT
  5
EA7
100
AcDbEntity
  8
DIM
 62
     6
100
AcDbText
 10
157.713172
 20
81.228745
 30
0.0
 40
1.5
  1
C
  7
ROMAND
 11
157.713172
 21
81.978745
 31
0.0
100
AcDbText
 73
     2
  0
LINE
  5
EA8
100
AcDbEntity
  8
DIM
 62
     6
100
AcDbLine
 10
154.854965
 20
82.073161
 30
0.0
 11
156.354965
 21
82.073161
 31
0.0
  0
SOLID
  5
EA9
100
AcDbEntity
  8
DIM
 62
     6
100
AcDbTrace
 10
147.83208
 20
76.326745
 30
0.0
 11
147.526229
 21
76.722288
 31
0.0
 12
146.492523
 22
75.606962
 32
0.0
 13
146.492523
 23
75.606962
 33
0.0
  0
LINE
  5
EAA
100
AcDbEntity
  8
DIM
 62
     6
100
AcDbLine
 10
147.679155
 20
76.524516
 30
0.0
 11
154.854965
 21
82.073161
 31
0.0
  0
SOLID
  5
EAB
100
AcDbEntity
  8
DIM
 62
     6
100
AcDbTrace
 10
143.100969
 20
55.658305
 30
0.0
 11
143.395698
 21
56.062204
 31
0.0
 12
142.036635
 22
56.744442
 32
0.0
 13
142.036635
 23
56.744442
 33
0.0
  0
LINE
  5
EAC
100
AcDbEntity
  8
DIM
 62
     6
100
AcDbLine
 10
143.248334
 20
55.860255
 30
0.0
 11
154.854965
 21
47.390794
 31
0.0
  0
LINE
  5
EAD
100
AcDbEntity
  8
DIM
 62
     6
100
AcDbLine
 10
154.854965
 20
71.482722
 30
0.0
 11
156.354965
 21
71.482722
 31
0.0
  0
SOLID
  5
EAE
100
AcDbEntity
  8
DIM
 62
     6
100
AcDbTrace
 10
147.782781
 20
63.126209
 30
0.0
 11
147.408593
 21
63.457846
 31
0.0
 12
146.600776
 22
62.169462
 32
0.0
 13
146.600776
 23
62.169462
 33
0.0
  0
LINE
  5
EAF
100
AcDbEntity
  8
DIM
 62
     6
100
AcDbLine
 10
147.595687
 20
63.292027
 30
0.0
 11
154.854965
 21
71.482722
 31
0.0
  0
LWPOLYLINE
  5
EB0
100
AcDbEntity
  8
DIM
 62
     6
100
AcDbPolyline
 90
        2
 70
     0
 43
0.25
 39
20.0
 10
140.886472
 20
97.10944
 10
202.640001
 20
97.10944
  0
TEXT
  5
EB4
100
AcDbEntity
  8
DIM
 62
     6
100
AcDbText
 10
126.659433
 20
47.183298
 30
0.0
 40
1.5
  1
ROUND COVER
  7
ROMAND
 72
     1
 11
134.909433
 21
47.183298
 31
0.0
100
AcDbText
  0
LINE
  5
EB5
100
AcDbEntity
  8
DIM
 62
     6
100
AcDbLine
 39
20.0
 10
126.683521
 20
46.859926
 30
0.0
 11
143.194956
 21
46.859926
 31
0.0
  0
TEXT
  5
EB6
100
AcDbEntity
  8
DIM
 62
     6
100
AcDbText
 10
201.369435
 20
47.183298
 30
0.0
 40
1.5
  1
SQUARE COVER
  7
ROMAND
 72
     1
 11
210.15515
 21
47.183298
 31
0.0
100
AcDbText
  0
LINE
  5
EB7
100
AcDbEntity
  8
DIM
 62
     6
100
AcDbLine
 39
20.0
 10
201.929237
 20
46.859926
 30
0.0
 11
218.440672
 21
46.859926
 31
0.0
  0
LINE
  5
133D
100
AcDbEntity
  8
LIMITS
100
AcDbLine
 10
233.860438
 20
-49.90638
 30
0.0
 11
233.860438
 21
102.608266
 31
0.0
  0
LINE
  5
133E
100
AcDbEntity
  8
LIMITS
100
AcDbLine
 10
233.860438
 20
102.608266
 30
0.0
 11
233.860438
 21
-49.90638
 31
0.0
  0
LINE
  5
133F
100
AcDbEntity
  8
LIMITS
 62
     7
100
AcDbLine
 10
233.860438
 20
-49.90638
 30
0.0
 11
233.860438
 21
105.779072
 31
0.0
  0
LWPOLYLINE
  5
1340
100
AcDbEntity
  8
BORDER
 62
     5
100
AcDbPolyline
 90
        2
 70
     0
 43
0.317739
 10
231.318527
 20
-31.824581
 10
231.318527
 20
101.966206
  0
LINE
  5
1341
100
AcDbEntity
  8
LIMITS
 62
     7
100
AcDbLine
 10
113.558043
 20
105.779072
 30
0.0
 11
113.558043
 21
-49.90638
 31
0.0
  0
LWPOLYLINE
  5
1342
100
AcDbEntity
  8
BORDER
 62
     5
100
AcDbPolyline
 90
        2
 70
     0
 43
0.317739
 10
116.099954
 20
-31.824581
 10
116.099954
 20
101.966206
  0
LWPOLYLINE
  5
1343
100
AcDbEntity
  8
BORDER
 62
     5
100
AcDbPolyline
 90
        6
 70
     0
 43
0.566129
 10
116.099954
 20
-31.824581
 10
116.099954
 20
101.966206
 42
-0.414214
 10
117.370909
 20
103.237161
 10
230.047572
 20
103.237161
 42
-0.414214
 10
231.318527
 20
101.966206
 10
231.318527
 20
-31.824581
  0
LWPOLYLINE
  5
1344
100
AcDbEntity
  8
BORDER
 62
     5
100
AcDbPolyline
 90
        2
 70
     0
 43
0.794347
 10
136.752979
 20
-32.430743
 42
-0.414214
 10
139.930368
 20
-35.608132
 42
0.560527
  0
ARC
  5
1345
100
AcDbEntity
  8
BORDER
100
AcDbCircle
 10
136.752979
 20
-35.608132
 30
0.0
 40
1.588694
100
AcDbArc
 50
0.0
 51
90.0
  0
LINE
  5
1346
100
AcDbEntity
  8
BORDER
100
AcDbLine
 10
119.277343
 20
-45.140297
 30
0.0
 11
138.341673
 21
-45.140297
 31
0.0
  0
LINE
  5
1347
100
AcDbEntity
  8
LIMITS
 62
     7
100
AcDbLine
 10
113.558043
 20
-49.90638
 30
0.0
 11
233.860438
 21
-49.90638
 31
0.0
  0
LWPOLYLINE
  5
1348
100
AcDbEntity
  8
BORDER
 62
     5
100
AcDbPolyline
 90
        2
 70
     0
 43
0.794347
 10
228.141139
 20
-46.728991
 10
119.277343
 20
-46.728991
  0
LWPOLYLINE
  5
1349
100
AcDbEntity
  8
BORDER
 62
     5
100
AcDbPolyline
 90
        2
 70
     0
 43
0.794347
 10
119.277343
 20
-32.430743
 42
0.414214
 10
116.099954
 20
-35.608132
 42
-0.560527
  0
LWPOLYLINE
  5
134A
100
AcDbEntity
  8
BORDER
 62
     5
100
AcDbPolyline
 90
        2
 70
     0
 43
0.794347
 10
119.277343
 20
-46.728991
 42
-0.414214
 10
116.099954
 20
-43.551603
 42
0.560527
  0
LWPOLYLINE
  5
134B
100
AcDbEntity
  8
BORDER
 62
     5
100
AcDbPolyline
 90
        2
 70
     0
 43
0.794347
 10
116.099954
 20
-35.608132
 10
116.099954
 20
-43.551603
  0
ARC
  5
134C
100
AcDbEntity
  8
BORDER
100
AcDbCircle
 10
119.277343
 20
-43.551603
 30
0.0
 40
1.588694
100
AcDbArc
 50
180.0
 51
270.0
  0
HATCH
  5
134D
100
AcDbEntity
  8
BORDER
100
AcDbHatch
 10
0.0
 20
0.0
 30
0.0
210
0.0
220
0.0
230
1.0
  2
ANSI37
 70
     0
 71
     1
 91
        2
 92
        5
 93
        1
 72
     3
 10
128.430987
 20
-39.81599
 11
0.0
 21
1.774561
 40
0.93822
 50
0.0
 51
360.0
 73
     1
 97
        1
330
1352
 92
       20
 93
        1
 72
     3
 10
128.430987
 20
-39.805879
 11
0.0
 21
1.592555
 40
0.683214
 50
0.0
 51
360.0
 73
     1
 97
        1
330
137E
 75
     0
 76
     1
 52
0.0
 41
0.024614
 77
     0
 78
     2
 53
45.0
 43
115.140706
 44
-130.412828
 45
-0.0021756301671622
 46
0.0021756301671622
 79
     0
 53
135.0
 43
115.140706
 44
-130.412828
 45
-0.0021756301671622
 46
-0.0021756301671622
 79
     0
 47
0.027301
 98
        2
 10
127.23353
 20
-39.093713
 10
127.23353
 20
-39.093713
  0
HATCH
  5
134E
100
AcDbEntity
  8
BORDER
100
AcDbHatch
 10
0.0
 20
0.0
 30
0.0
210
0.0
220
0.0
230
1.0
  2
ANSI37
 70
     0
 71
     1
 91
        1
 92
        7
 72
     1
 73
     1
 93
       18
 10
123.4068498050491
 20
-40.56945176431708
 42
-0.4142135623730746
 10
122.5960145250536
 20
-41.38028704431252
 42
0.0
 10
122.3348880484096
 20
-41.38028704431252
 42
0.0
 10
122.3348880484096
 20
-41.54941678793584
 42
0.0
 10
125.8801504932943
 20
-41.54941678793584
 42
0.0
 10
125.8801504932943
 20
-41.38028704431252
 42
0.0
 10
125.6190240166498
 20
-41.38028704431252
 42
-0.4142135623730542
 10
124.8081887366544
 20
-40.56945176431702
 42
0.0
 10
124.8081887366544
 20
-36.10692229255531
 42
0.0
 10
125.5218726095685
 20
-36.10692229255531
 42
-0.413820019673764
 10
127.1401744521928
 20
-37.72305087940597
 42
0.0
 10
127.3094328354808
 20
-37.72305087940597
 42
0.0
 10
127.3094328354812
 20
-35.69349395592931
 42
0.0
 10
120.9056057062227
 20
-35.69349395592931
 42
0.0
 10
120.9056057062227
 20
-37.72305087940597
 42
0.0
 10
121.074864089511
 20
-37.72305087940597
 42
-0.4138200196737641
 10
122.6931659321353
 20
-36.10692229255531
 42
0.0
 10
123.4068498050491
 20
-36.10692229255531
 42
0.0
 97
       18
330
1377
330
1353
330
134F
330
1378
330
1358
330
135C
330
1363
330
135D
330
1376
330
135A
330
1364
330
136B
330
136C
330
1367
330
1370
330
1374
330
1365
330
1359
 75
     0
 76
     1
 52
0.0
 41
0.024614
 77
     0
 78
     2
 53
45.0
 43
115.140706
 44
-130.412828
 45
-0.0021756301671622
 46
0.0021756301671622
 79
     0
 53
135.0
 43
115.140706
 44
-130.412828
 45
-0.0021756301671622
 46
-0.0021756301671622
 79
     0
 47
0.049862
 98
        1
 10
123.935545
 20
-38.424757
  0
LINE
  5
134F
102
{ACAD_REACTORS
330
134E
102
}
100
AcDbEntity
  8
BORDER
100
AcDbLine
 10
127.309433
 20
-37.723051
 30
0.0
 11
127.140176
 21
-37.723051
 31
0.0
  0
LINE
  5
1350
100
AcDbEntity
  8
BORDER
100
AcDbLine
 10
126.973604
 20
-42.860211
 30
0.0
 11
127.312744
 21
-42.860211
 31
0.0
  0
LINE
  5
1351
100
AcDbEntity
  8
BORDER
100
AcDbLine
 10
127.312744
 20
-42.19022
 30
0.0
 11
126.973604
 21
-42.19022
 31
0.0
  0
ELLIPSE
  5
1352
102
{ACAD_REACTORS
330
134D
102
}
100
AcDbEntity
  8
BORDER
100
AcDbEllipse
 10
128.430987
 20
-39.81599
 30
0.0
 11
0.000000000000012
 21
1.774560980205257
 31
0.0
210
0.0
220
0.0
230
1.0
 40
0.93822
 41
0.0
 42
6.283185307179586
  0
ARC
  5
1353
102
{ACAD_REACTORS
330
134E
102
}
100
AcDbEntity
  8
BORDER
100
AcDbCircle
 10
125.521873
 20
-37.725226
 30
0.0
 40
1.618303
100
AcDbArc
 50
0.076996
 51
90.0
  0
LINE
  5
1354
100
AcDbEntity
  8
BORDER
100
AcDbLine
 10
119.277343
 20
-34.019438
 30
0.0
 11
136.752979
 21
-34.019438
 31
0.0
  0
LWPOLYLINE
  5
1355
100
AcDbEntity
  8
BORDER
 62
     5
100
AcDbPolyline
 90
        2
 70
     0
 43
0.794347
 10
119.277343
 20
-32.430743
 10
136.752979
 20
-32.430743
  0
LINE
  5
1356
100
AcDbEntity
  8
BORDER
100
AcDbLine
 10
120.075039
 20
-41.76986
 30
0.0
 11
136.044353
 21
-41.76986
 31
0.0
  0
LINE
  5
1357
100
AcDbEntity
  8
BORDER
100
AcDbLine
 10
120.075039
 20
-41.76986
 30
0.0
 11
136.044353
 21
-41.76986
 31
0.0
  0
LINE
  5
1358
102
{ACAD_REACTORS
330
134E
102
}
100
AcDbEntity
  8
BORDER
100
AcDbLine
 10
120.905606
 20
-35.693494
 30
0.0
 11
127.309433
 21
-35.693494
 31
0.0
  0
LINE
  5
1359
102
{ACAD_REACTORS
330
134E
102
}
100
AcDbEntity
  8
BORDER
100
AcDbLine
 10
124.808189
 20
-40.569452
 30
0.0
 11
124.808189
 21
-36.106922
 31
0.0
  0
LINE
  5
135A
102
{ACAD_REACTORS
330
134E
102
}
100
AcDbEntity
  8
BORDER
100
AcDbLine
 10
123.40685
 20
-40.569452
 30
0.0
 11
123.40685
 21
-36.106922
 31
0.0
  0
LINE
  5
135B
100
AcDbEntity
  8
BORDER
100
AcDbLine
 10
117.688648
 20
-43.551603
 30
0.0
 11
117.688648
 21
-35.608132
 31
0.0
  0
LINE
  5
135C
102
{ACAD_REACTORS
330
134E
102
}
100
AcDbEntity
  8
BORDER
100
AcDbLine
 10
120.905606
 20
-37.723051
 30
0.0
 11
120.905606
 21
-35.693494
 31
0.0
  0
ARC
  5
135D
102
{ACAD_REACTORS
330
134E
102
}
100
AcDbEntity
  8
BORDER
100
AcDbCircle
 10
122.693166
 20
-37.725226
 30
0.0
 40
1.618303
100
AcDbArc
 50
90.0
 51
179.923004
  0
LINE
  5
135E
100
AcDbEntity
  8
BORDER
100
AcDbLine
 10
122.348981
 20
-43.496888
 30
0.0
 11
121.347809
 21
-42.19022
 31
0.0
  0
LINE
  5
135F
100
AcDbEntity
  8
BORDER
100
AcDbLine
 10
121.347809
 20
-42.19022
 30
0.0
 11
121.347809
 21
-43.496888
 31
0.0
  0
LINE
  5
1360
100
AcDbEntity
  8
BORDER
100
AcDbLine
 10
120.775711
 20
-42.19022
 30
0.0
 11
120.775711
 21
-43.496888
 31
0.0
  0
LINE
  5
1361
100
AcDbEntity
  8
BORDER
100
AcDbLine
 10
120.508151
 20
-43.496888
 30
0.0
 11
121.043271
 21
-43.496888
 31
0.0
  0
LINE
  5
1362
100
AcDbEntity
  8
BORDER
100
AcDbLine
 10
120.508151
 20
-42.19022
 30
0.0
 11
121.043271
 21
-42.19022
 31
0.0
  0
LINE
  5
1363
102
{ACAD_REACTORS
330
134E
102
}
100
AcDbEntity
  8
BORDER
100
AcDbLine
 10
120.905606
 20
-37.723051
 30
0.0
 11
121.074863
 21
-37.723051
 31
0.0
  0
ARC
  5
1364
102
{ACAD_REACTORS
330
134E
102
}
100
AcDbEntity
  8
BORDER
100
AcDbCircle
 10
122.596015
 20
-40.569452
 30
0.0
 40
0.810835
100
AcDbArc
 50
270.0
 51
0.0
  0
ARC
  5
1365
102
{ACAD_REACTORS
330
134E
102
}
100
AcDbEntity
  8
BORDER
100
AcDbCircle
 10
125.619024
 20
-40.569452
 30
0.0
 40
0.810835
100
AcDbArc
 50
180.0
 51
270.0
  0
SPLINE
  5
1366
100
AcDbEntity
  8
BORDER
100
AcDbSpline
210
0.0
220
0.0
230
1.0
 70
    11
 71
     3
 72
    24
 73
    20
 74
     0
 42
0.0000001
 43
0.0000001
 40
0.0
 40
0.0
 40
0.0
 40
0.0
 40
0.474866629778075
 40
0.474866629778075
 40
1.277791044886493
 40
1.277791044886493
 40
2.080715459994911
 40
2.080715459994911
 40
2.883639875103329
 40
2.883639875103329
 40
3.686564290211747
 40
3.686564290211747
 40
4.489488705320165
 40
4.489488705320165
 40
5.292413120428583
 40
5.292413120428583
 40
6.095337535537001
 40
6.095337535537001
 40
6.283185307179586
 40
6.283185307179586
 40
6.283185307179586
 40
6.283185307179586
 10
124.6156492123265
 20
-42.17249729125899
 30
0.0
 10
124.5097462486235
 20
-42.17249729125899
 30
0.0
 10
124.403932492132
 20
-42.19818583360136
 30
0.0
 10
124.1505084081171
 20
-42.32888496777163
 30
0.0
 10
124.026872188963
 20
-42.47780980476246
 30
0.0
 10
123.9234569618207
 20
-42.82168418246475
 30
0.0
 10
123.9443654709382
 20
-43.0143298205489
 30
0.0
 10
124.1191377864403
 20
-43.32783083176191
 30
0.0
 10
124.2718369423273
 20
-43.44658080737018
 30
0.0
 10
124.6181125786076
 20
-43.53822847920501
 30
0.0
 10
124.8093563132701
 20
-43.51050391967632
 30
0.0
 10
125.1155878289546
 20
-43.32427558539591
 30
0.0
 10
125.2285192676041
 20
-43.16703214217908
 30
0.0
 10
125.3076683171111
 20
-42.81673851196633
 30
0.0
 10
125.2733600106782
 20
-42.62603399931125
 30
0.0
 10
125.0771233358877
 20
-42.32557956949447
 30
0.0
 10
124.9165038977726
 20
-42.21784936626815
 30
0.0
 10
124.6994345422709
 20
-42.17645610816286
 30
0.0
 10
124.657542313451
 20
-42.17249729125899
 30
0.0
 10
124.6156492123265
 20
-42.17249729125899
 30
0.0
  0
LINE
  5
1367
102
{ACAD_REACTORS
330
134E
102
}
100
AcDbEntity
  8
BORDER
100
AcDbLine
 10
122.334888
 20
-41.549417
 30
0.0
 11
125.88015
 21
-41.549417
 31
0.0
  0
LINE
  5
1368
100
AcDbEntity
  8
BORDER
100
AcDbLine
 10
122.348981
 20
-42.19022
 30
0.0
 11
122.348981
 21
-43.496888
 31
0.0
  0
ARC
  5
1369
100
AcDbEntity
  8
BORDER
100
AcDbCircle
 10
123.252159
 20
-42.898511
 30
0.0
 40
0.599223
100
AcDbArc
 50
174.737783
 51
327.723969
  0
ARC
  5
136A
100
AcDbEntity
  8
BORDER
100
AcDbCircle
 10
123.298607
 20
-42.833281
 30
0.0
 40
0.643228
100
AcDbArc
 50
44.321228
 51
180.91508
  0
LINE
  5
136B
102
{ACAD_REACTORS
330
134E
102
}
100
AcDbEntity
  8
BORDER
100
AcDbLine
 10
122.334888
 20
-41.380287
 30
0.0
 11
122.596015
 21
-41.380287
 31
0.0
  0
LINE
  5
136C
102
{ACAD_REACTORS
330
134E
102
}
100
AcDbEntity
  8
BORDER
100
AcDbLine
 10
122.334888
 20
-41.380287
 30
0.0
 11
122.334888
 21
-41.549417
 31
0.0
  0
LINE
  5
136D
100
AcDbEntity
  8
BORDER
100
AcDbLine
 10
126.973604
 20
-42.19022
 30
0.0
 11
126.973604
 21
-43.496888
 31
0.0
  0
LINE
  5
136E
100
AcDbEntity
  8
BORDER
100
AcDbLine
 10
125.950921
 20
-42.860211
 30
0.0
 11
126.469668
 21
-43.496888
 31
0.0
  0
LINE
  5
136F
100
AcDbEntity
  8
BORDER
100
AcDbLine
 10
125.593273
 20
-42.19022
 30
0.0
 11
125.593273
 21
-43.496888
 31
0.0
  0
LINE
  5
1370
102
{ACAD_REACTORS
330
134E
102
}
100
AcDbEntity
  8
BORDER
100
AcDbLine
 10
125.88015
 20
-41.380287
 30
0.0
 11
125.88015
 21
-41.549417
 31
0.0
  0
ARC
  5
1371
100
AcDbEntity
  8
BORDER
100
AcDbCircle
 10
126.044994
 20
-42.525215
 30
0.0
 40
0.334995
100
AcDbArc
 50
270.0
 51
90.0
  0
LINE
  5
1372
100
AcDbEntity
  8
BORDER
100
AcDbLine
 10
125.593273
 20
-42.860211
 30
0.0
 11
126.044994
 21
-42.860211
 31
0.0
  0
LINE
  5
1373
100
AcDbEntity
  8
BORDER
100
AcDbLine
 10
126.044994
 20
-42.19022
 30
0.0
 11
125.593273
 21
-42.19022
 31
0.0
  0
LINE
  5
1374
102
{ACAD_REACTORS
330
134E
102
}
100
AcDbEntity
  8
BORDER
100
AcDbLine
 10
125.88015
 20
-41.380287
 30
0.0
 11
125.619024
 21
-41.380287
 31
0.0
  0
ARC
  5
1375
100
AcDbEntity
  8
BORDER
100
AcDbCircle
 10
119.277343
 20
-35.608132
 30
0.0
 40
1.588694
100
AcDbArc
 50
90.0
 51
180.0
  0
LINE
  5
1376
102
{ACAD_REACTORS
330
134E
102
}
100
AcDbEntity
  8
BORDER
100
AcDbLine
 10
122.693166
 20
-36.106922
 30
0.0
 11
123.40685
 21
-36.106922
 31
0.0
  0
LINE
  5
1377
102
{ACAD_REACTORS
330
134E
102
}
100
AcDbEntity
  8
BORDER
100
AcDbLine
 10
125.521873
 20
-36.106922
 30
0.0
 11
124.808189
 21
-36.106922
 31
0.0
  0
LINE
  5
1378
102
{ACAD_REACTORS
330
134E
102
}
100
AcDbEntity
  8
BORDER
100
AcDbLine
 10
127.309433
 20
-37.723051
 30
0.0
 11
127.309433
 21
-35.693494
 31
0.0
  0
HATCH
  5
1379
100
AcDbEntity
  8
BORDER
100
AcDbHatch
 10
0.0
 20
0.0
 30
0.0
210
0.0
220
0.0
230
1.0
  2
ANSI37
 70
     0
 71
     1
 91
        2
 92
        7
 72
     1
 73
     1
 93
       16
 10
130.8632822140184
 20
-41.08666622726706
 42
-0.4142135623731033
 10
130.5285769530901
 20
-41.42137148819532
 42
0.0
 10
130.3736854039951
 20
-41.42137148819531
 42
0.0
 10
130.3736854039951
 20
-41.50959314147299
 42
0.0
 10
131.8264231282906
 20
-41.50959314147299
 42
0.0
 10
131.8264231282906
 20
-41.42137148819533
 42
0.0
 10
131.6715315791957
 20
-41.42137148819532
 42
-0.4142135623731046
 10
131.3368263182675
 20
-41.08666622726711
 42
0.0
 10
131.3368263182675
 20
-39.91358673406501
 42
0.060911755802349
 10
131.9227372197179
 20
-39.98576772133297
 42
0.4291497434371741
 10
132.9581137025601
 20
-39.05543220519378
 42
0.3916311771393089
 10
131.9444930097503
 20
-38.10629995472238
 42
0.0
 10
130.3762020781948
 20
-38.10629995472238
 42
0.0
 10
130.3762020781948
 20
-38.19971787536895
 42
0.0
 10
130.5285769530901
 20
-38.19971787536895
 42
-0.4142135623731013
 10
130.8632822140184
 20
-38.53442313629721
 42
0.0
 97
        1
330
137C
 92
       22
 72
     1
 73
     1
 93
        3
 10
131.3368263182675
 20
-38.35768083018896
 42
-0.5287425889464079
 10
132.3882549710796
 20
-39.09553286532986
 42
-0.5439228899220654
 10
131.3368263182675
 20
-39.78526442065149
 42
0.0
 97
        1
330
137B
 75
     0
 76
     1
 52
0.0
 41
0.024614
 77
     0
 78
     2
 53
45.0
 43
115.140706
 44
-130.412828
 45
-0.0021756301671622
 46
0.0021756301671622
 79
     0
 53
135.0
 43
115.140706
 44
-130.412828
 45
-0.0021756301671622
 46
-0.0021756301671622
 79
     0
 47
0.027301
 98
        2
 10
131.05334
 20
-38.972753
 10
131.05334
 20
-38.972753
  0
LINE
  5
137A
100
AcDbEntity
  8
BORDER
100
AcDbLine
 10
127.527072
 20
-37.708934
 30
0.0
 11
135.668613
 21
-37.708934
 31
0.0
  0
LWPOLYLINE
  5
137B
102
{ACAD_REACTORS
330
1379
102
}
100
AcDbEntity
  8
BORDER
100
AcDbPolyline
 90
        3
 70
     1
 43
0.0
 10
131.336826
 20
-39.785264
 42
0.543923
 10
132.388255
 20
-39.095533
 42
0.528743
 10
131.336826
 20
-38.357681
  0
LWPOLYLINE
  5
137C
102
{ACAD_REACTORS
330
1379
102
}
100
AcDbEntity
  8
BORDER
100
AcDbPolyline
 90
       17
 70
     0
 43
0.0
 10
131.922737
 20
-39.985768
 42
-0.060912
 10
131.336826
 20
-39.913587
 10
131.336826
 20
-41.086666
 42
0.414214
 10
131.671532
 20
-41.421371
 10
131.826423
 20
-41.421371
 10
131.826423
 20
-41.509593
 10
130.373685
 20
-41.509593
 10
130.373685
 20
-41.421371
 10
130.528577
 20
-41.421371
 42
0.414214
 10
130.863282
 20
-41.086666
 10
130.863282
 20
-38.534423
 42
0.414214
 10
130.528577
 20
-38.199718
 10
130.376202
 20
-38.199718
 10
130.376202
 20
-38.1063
 10
131.932201
 20
-38.1063
 42
-0.395102
 10
132.958114
 20
-39.055432
 42
-0.42915
 10
131.922737
 20
-39.985768
  0
LINE
  5
137D
100
AcDbEntity
  8
BORDER
100
AcDbLine
 10
132.052609
 20
-42.19022
 30
0.0
 11
133.159819
 21
-42.19022
 31
0.0
  0
ELLIPSE
  5
137E
102
{ACAD_REACTORS
330
134D
102
}
100
AcDbEntity
  8
BORDER
100
AcDbEllipse
 10
128.430987
 20
-39.805879
 30
0.0
 11
0.000000000000012
 21
1.592554790241038
 31
0.0
210
0.0
220
0.0
230
1.0
 40
0.683214
 41
0.0
 42
6.283185307179586
  0
LINE
  5
137F
100
AcDbEntity
  8
BORDER
100
AcDbLine
 10
129.98487
 20
-42.19022
 30
0.0
 11
129.533149
 21
-42.19022
 31
0.0
  0
LINE
  5
1380
100
AcDbEntity
  8
BORDER
100
AcDbLine
 10
129.533149
 20
-42.860211
 30
0.0
 11
129.98487
 21
-42.860211
 31
0.0
  0
LINE
  5
1381
100
AcDbEntity
  8
BORDER
100
AcDbLine
 10
129.533149
 20
-42.19022
 30
0.0
 11
129.533149
 21
-43.496888
 31
0.0
  0
SPLINE
  5
1382
100
AcDbEntity
  8
BORDER
100
AcDbSpline
210
0.0
220
0.0
230
1.0
 70
    11
 71
     3
 72
    24
 73
    20
 74
     0
 42
0.0000001
 43
0.0000001
 40
0.0
 40
0.0
 40
0.0
 40
0.0
 40
0.474866629778075
 40
0.474866629778075
 40
1.277791044886493
 40
1.277791044886493
 40
2.080715459994911
 40
2.080715459994911
 40
2.883639875103329
 40
2.883639875103329
 40
3.686564290211747
 40
3.686564290211747
 40
4.489488705320165
 40
4.489488705320165
 40
5.292413120428583
 40
5.292413120428583
 40
6.095337535537001
 40
6.095337535537001
 40
6.283185307179586
 40
6.283185307179586
 40
6.283185307179586
 40
6.283185307179586
 10
128.5035785764025
 20
-42.17249729125899
 30
0.0
 10
128.3976756126992
 20
-42.17249729125899
 30
0.0
 10
128.2918618562079
 20
-42.19818583360136
 30
0.0
 10
128.0384377721929
 20
-42.32888496777163
 30
0.0
 10
127.914801553039
 20
-42.47780980476246
 30
0.0
 10
127.8113863258969
 20
-42.82168418246475
 30
0.0
 10
127.8322948350144
 20
-43.0143298205489
 30
0.0
 10
128.0070671505161
 20
-43.32783083176191
 30
0.0
 10
128.1597663064031
 20
-43.44658080737018
 30
0.0
 10
128.5060419426836
 20
-43.53822847920501
 30
0.0
 10
128.697285677346
 20
-43.51050391967632
 30
0.0
 10
129.0035171930304
 20
-43.32427558539591
 30
0.0
 10
129.1164486316798
 20
-43.16703214217908
 30
0.0
 10
129.1955976811874
 20
-42.81673851196633
 30
0.0
 10
129.1612893747544
 20
-42.62603399931125
 30
0.0
 10
128.9650526999639
 20
-42.32557956949447
 30
0.0
 10
128.8044332618484
 20
-42.21784936626815
 30
0.0
 10
128.5873639063468
 20
-42.17645610816286
 30
0.0
 10
128.5454716775271
 20
-42.17249729125899
 30
0.0
 10
128.5035785764025
 20
-42.17249729125899
 30
0.0
  0
ARC
  5
1383
100
AcDbEntity
  8
BORDER
100
AcDbCircle
 10
127.312744
 20
-42.525215
 30
0.0
 40
0.334995
100
AcDbArc
 50
270.0
 51
90.0
  0
LINE
  5
1384
100
AcDbEntity
  8
BORDER
100
AcDbLine
 10
131.786871
 20
-43.496888
 30
0.0
 11
131.26865
 21
-42.19022
 31
0.0
  0
LINE
  5
1385
100
AcDbEntity
  8
BORDER
100
AcDbLine
 10
129.890797
 20
-42.860211
 30
0.0
 11
130.409544
 21
-43.496888
 31
0.0
  0
LINE
  5
1386
100
AcDbEntity
  8
BORDER
100
AcDbLine
 10
131.26865
 20
-42.19022
 30
0.0
 11
130.768176
 21
-43.496888
 31
0.0
  0
LINE
  5
1387
100
AcDbEntity
  8
BORDER
100
AcDbLine
 10
130.950661
 20
-43.020445
 30
0.0
 11
131.597915
 21
-43.020445
 31
0.0
  0
ARC
  5
1388
100
AcDbEntity
  8
BORDER
100
AcDbCircle
 10
129.98487
 20
-42.525215
 30
0.0
 40
0.334995
100
AcDbArc
 50
270.0
 51
90.0
  0
HATCH
  5
1389
100
AcDbEntity
  8
BORDER
100
AcDbHatch
 10
0.0
 20
0.0
 30
0.0
210
0.0
220
0.0
230
1.0
  2
ANSI37
 70
     0
 71
     1
 91
        2
 92
        7
 72
     1
 73
     1
 93
       16
 10
133.7208974526431
 20
-41.09955925423348
 42
-0.4142135623729107
 10
133.3861921917147
 20
-41.43426451516165
 42
0.0
 10
133.2313006426197
 20
-41.43426451516165
 42
0.0
 10
133.2313006426197
 20
-41.52248616843869
 42
0.0
 10
134.684038366915
 20
-41.52248616843869
 42
0.0
 10
134.6840383669149
 20
-41.43426451516165
 42
0.0
 10
134.5291468178206
 20
-41.43426451516165
 42
-0.414213562373546
 10
134.1944415568917
 20
-41.09955925423327
 42
0.0
 10
134.1944415568917
 20
-39.92647976103081
 42
0.0609117558028006
 10
134.7803524583465
 20
-39.9986607482988
 42
0.4291497434354183
 10
135.8157289411849
 20
-39.06832523216139
 42
0.3916311771492565
 10
134.8021082483408
 20
-38.11919298168808
 42
0.0
 10
133.2338173168195
 20
-38.11919298168808
 42
0.0
 10
133.2338173168195
 20
-38.21261090233531
 42
0.0
 10
133.3861921917148
 20
-38.21261090233531
 42
-0.4142135623729989
 10
133.7208974526431
 20
-38.54731616326369
 42
0.0
 97
       16
330
139D
330
13A4
330
13A1
330
13A0
330
13A2
330
138A
330
1396
330
1394
330
1395
330
1391
330
1398
330
1399
330
139A
330
138B
330
13A5
330
139C
 92
       22
 72
     1
 73
     1
 93
        3
 10
134.1944415568917
 20
-38.37057385715453
 42
-0.5287425889417858
 10
135.2458702097041
 20
-39.10842589228409
 42
-0.5439228899274264
 10
134.1944415568917
 20
-39.79815744761765
 42
0.0
 97
        3
330
139F
330
139E
330
13A3
 75
     0
 76
     1
 52
0.0
 41
0.024614
 77
     0
 78
     2
 53
45.0
 43
115.140706
 44
-130.412828
 45
-0.0021756301671622
 46
0.0021756301671622
 79
     0
 53
135.0
 43
115.140706
 44
-130.412828
 45
-0.0021756301671622
 46
-0.0021756301671622
 79
     0
 47
0.027301
 98
        2
 10
133.918198
 20
-39.268434
 10
133.918198
 20
-39.268434
  0
LINE
  5
138A
102
{ACAD_REACTORS
330
1389
102
}
100
AcDbEntity
  8
BORDER
100
AcDbLine
 10
133.720897
 20
-41.099559
 30
0.0
 11
133.720897
 21
-38.547316
 31
0.0
  0
LINE
  5
138B
102
{ACAD_REACTORS
330
1389
102
}
100
AcDbEntity
  8
BORDER
100
AcDbLine
 10
134.194442
 20
-39.92648
 30
0.0
 11
134.194442
 21
-41.099559
 31
0.0
  0
LINE
  5
138C
100
AcDbEntity
  8
BORDER
100
AcDbLine
 10
134.655833
 20
-43.496888
 30
0.0
 11
135.148989
 21
-43.496888
 31
0.0
  0
LINE
  5
138D
100
AcDbEntity
  8
BORDER
100
AcDbLine
 10
135.148989
 20
-42.19022
 30
0.0
 11
134.655833
 21
-42.19022
 31
0.0
  0
LINE
  5
138E
100
AcDbEntity
  8
BORDER
100
AcDbLine
 10
133.448656
 20
-42.843554
 30
0.0
 11
134.009276
 21
-42.843554
 31
0.0
  0
LINE
  5
138F
100
AcDbEntity
  8
BORDER
100
AcDbLine
 10
134.29168
 20
-43.496888
 30
0.0
 11
133.448656
 21
-43.496888
 31
0.0
  0
LINE
  5
1390
100
AcDbEntity
  8
BORDER
100
AcDbLine
 10
133.448656
 20
-42.19022
 30
0.0
 11
134.29168
 21
-42.19022
 31
0.0
  0
LINE
  5
1391
102
{ACAD_REACTORS
330
1389
102
}
100
AcDbEntity
  8
BORDER
100
AcDbLine
 10
133.231301
 20
-41.522486
 30
0.0
 11
134.684038
 21
-41.522486
 31
0.0
  0
LINE
  5
1392
100
AcDbEntity
  8
BORDER
100
AcDbLine
 10
132.606214
 20
-42.19022
 30
0.0
 11
132.606214
 21
-43.496888
 31
0.0
  0
LINE
  5
1393
100
AcDbEntity
  8
BORDER
100
AcDbLine
 10
133.448656
 20
-43.496888
 30
0.0
 11
133.448656
 21
-42.19022
 31
0.0
  0
LINE
  5
1394
102
{ACAD_REACTORS
330
1389
102
}
100
AcDbEntity
  8
BORDER
100
AcDbLine
 10
133.231301
 20
-41.434265
 30
0.0
 11
133.386192
 21
-41.434265
 31
0.0
  0
LINE
  5
1395
102
{ACAD_REACTORS
330
1389
102
}
100
AcDbEntity
  8
BORDER
100
AcDbLine
 10
133.231301
 20
-41.434265
 30
0.0
 11
133.231301
 21
-41.522486
 31
0.0
  0
ARC
  5
1396
102
{ACAD_REACTORS
330
1389
102
}
100
AcDbEntity
  8
BORDER
100
AcDbCircle
 10
133.386192
 20
-41.099559
 30
0.0
 40
0.334705
100
AcDbArc
 50
270.0
 51
360.0
  0
LINE
  5
1397
100
AcDbEntity
  8
BORDER
100
AcDbLine
 10
134.655833
 20
-42.19022
 30
0.0
 11
134.655833
 21
-43.496888
 31
0.0
  0
LINE
  5
1398
102
{ACAD_REACTORS
330
1389
102
}
100
AcDbEntity
  8
BORDER
100
AcDbLine
 10
134.684038
 20
-41.434265
 30
0.0
 11
134.684038
 21
-41.522486
 31
0.0
  0
LINE
  5
1399
102
{ACAD_REACTORS
330
1389
102
}
100
AcDbEntity
  8
BORDER
100
AcDbLine
 10
134.529147
 20
-41.434265
 30
0.0
 11
134.684038
 21
-41.434265
 31
0.0
  0
ARC
  5
139A
102
{ACAD_REACTORS
330
1389
102
}
100
AcDbEntity
  8
BORDER
100
AcDbCircle
 10
134.529147
 20
-41.099559
 30
0.0
 40
0.334705
100
AcDbArc
 50
180.0
 51
270.0
  0
ARC
  5
139B
100
AcDbEntity
  8
BORDER
100
AcDbCircle
 10
135.148989
 20
-42.843554
 30
0.0
 40
0.653334
100
AcDbArc
 50
270.0
 51
90.0
  0
ARC
  5
139C
102
{ACAD_REACTORS
330
1389
102
}
100
AcDbEntity
  8
BORDER
100
AcDbCircle
 10
134.85589
 20
-39.04142
 30
0.0
 40
0.960216
100
AcDbArc
 50
265.488062
 51
358.394374
  0
ARC
  5
139D
102
{ACAD_REACTORS
330
1389
102
}
100
AcDbEntity
  8
BORDER
100
AcDbCircle
 10
134.795962
 20
-39.141568
 30
0.0
 40
1.022394
100
AcDbArc
 50
4.10812
 51
90.34444
  0
ARC
  5
139E
102
{ACAD_REACTORS
330
1389
102
}
100
AcDbEntity
  8
BORDER
100
AcDbCircle
 10
134.496929
 20
-39.113004
 30
0.0
 40
0.748955
100
AcDbArc
 50
246.179097
 51
0.350223
  0
ARC
  5
139F
102
{ACAD_REACTORS
330
1389
102
}
100
AcDbEntity
  8
BORDER
100
AcDbCircle
 10
134.468818
 20
-39.097652
 30
0.0
 40
0.777127
100
AcDbArc
 50
359.205673
 51
110.674935
  0
LINE
  5
13A0
102
{ACAD_REACTORS
330
1389
102
}
100
AcDbEntity
  8
BORDER
100
AcDbLine
 10
133.233817
 20
-38.212611
 30
0.0
 11
133.386192
 21
-38.212611
 31
0.0
  0
LINE
  5
13A1
102
{ACAD_REACTORS
330
1389
102
}
100
AcDbEntity
  8
BORDER
100
AcDbLine
 10
133.233817
 20
-38.119193
 30
0.0
 11
133.233817
 21
-38.212611
 31
0.0
  0
ARC
  5
13A2
102
{ACAD_REACTORS
330
1389
102
}
100
AcDbEntity
  8
BORDER
100
AcDbCircle
 10
133.386192
 20
-38.547316
 30
0.0
 40
0.334705
100
AcDbArc
 50
0.0
 51
90.0
  0
LINE
  5
13A3
102
{ACAD_REACTORS
330
1389
102
}
100
AcDbEntity
  8
BORDER
100
AcDbLine
 10
134.194442
 20
-38.370574
 30
0.0
 11
134.194442
 21
-39.798157
 31
0.0
  0
LINE
  5
13A4
102
{ACAD_REACTORS
330
1389
102
}
100
AcDbEntity
  8
BORDER
100
AcDbLine
 10
133.233817
 20
-38.119193
 30
0.0
 11
134.802108
 21
-38.119193
 31
0.0
  0
ARC
  5
13A5
102
{ACAD_REACTORS
330
1389
102
}
100
AcDbEntity
  8
BORDER
100
AcDbCircle
 10
134.78255
 20
-37.56674
 30
0.0
 40
2.431922
100
AcDbArc
 50
256.005504
 51
269.948223
  0
LINE
  5
13A6
100
AcDbEntity
  8
BORDER
100
AcDbLine
 10
131.939887
 20
-36.315719
 30
0.0
 11
132.723602
 21
-36.315719
 31
0.0
  0
ARC
  5
13A7
100
AcDbEntity
  8
BORDER
100
AcDbCircle
 10
129.446412
 20
-36.792628
 30
0.0
 40
0.476909
100
AcDbArc
 50
270.0
 51
90.0
  0
LINE
  5
13A8
100
AcDbEntity
  8
BORDER
100
AcDbLine
 10
129.243377
 20
-36.315719
 30
0.0
 11
129.243377
 21
-37.269536
 31
0.0
  0
LINE
  5
13A9
100
AcDbEntity
  8
BORDER
100
AcDbLine
 10
128.838027
 20
-36.315719
 30
0.0
 11
128.838027
 21
-37.269536
 31
0.0
  0
LINE
  5
13AA
100
AcDbEntity
  8
BORDER
100
AcDbLine
 10
129.243377
 20
-37.269536
 30
0.0
 11
129.446412
 21
-37.269536
 31
0.0
  0
LINE
  5
13AB
100
AcDbEntity
  8
BORDER
100
AcDbLine
 10
129.446412
 20
-36.315719
 30
0.0
 11
129.243377
 21
-36.315719
 31
0.0
  0
LINE
  5
13AC
100
AcDbEntity
  8
BORDER
100
AcDbLine
 10
128.184235
 20
-36.295778
 30
0.0
 11
128.184235
 21
-37.269536
 31
0.0
  0
LINE
  5
13AD
100
AcDbEntity
  8
BORDER
100
AcDbLine
 10
127.752733
 20
-36.315719
 30
0.0
 11
127.752733
 21
-37.269536
 31
0.0
  0
LINE
  5
13AE
100
AcDbEntity
  8
BORDER
100
AcDbLine
 10
127.752733
 20
-36.315719
 30
0.0
 11
127.899568
 21
-36.315719
 31
0.0
  0
LINE
  5
13AF
100
AcDbEntity
  8
BORDER
100
AcDbLine
 10
128.838027
 20
-37.269536
 30
0.0
 11
128.184235
 21
-36.295778
 31
0.0
  0
LINE
  5
13B0
100
AcDbEntity
  8
BORDER
100
AcDbLine
 10
127.605898
 20
-37.269536
 30
0.0
 11
127.899568
 21
-37.269536
 31
0.0
  0
LINE
  5
13B1
100
AcDbEntity
  8
BORDER
100
AcDbLine
 10
127.605898
 20
-36.315719
 30
0.0
 11
127.752733
 21
-36.315719
 31
0.0
  0
LINE
  5
13B2
100
AcDbEntity
  8
BORDER
100
AcDbLine
 10
132.331744
 20
-36.315719
 30
0.0
 11
132.331744
 21
-37.269536
 31
0.0
  0
ARC
  5
13B3
100
AcDbEntity
  8
BORDER
100
AcDbCircle
 10
131.327385
 20
-36.519058
 30
0.0
 40
0.13469
100
AcDbArc
 50
140.101426
 51
236.383068
  0
ARC
  5
13B4
100
AcDbEntity
  8
BORDER
100
AcDbCircle
 10
131.460483
 20
-36.610517
 30
0.0
 40
0.295856
100
AcDbArc
 50
25.379638
 51
143.047804
  0
ARC
  5
13B5
100
AcDbEntity
  8
BORDER
100
AcDbCircle
 10
131.49888
 20
-36.967071
 30
0.0
 40
0.301989
100
AcDbArc
 50
200.502447
 51
334.026213
  0
ARC
  5
13B6
100
AcDbEntity
  8
BORDER
100
AcDbCircle
 10
135.667324
 20
-29.991112
 30
0.0
 40
7.973641
100
AcDbArc
 50
236.383068
 51
240.315223
  0
ARC
  5
13B7
100
AcDbEntity
  8
BORDER
100
AcDbCircle
 10
131.651852
 20
-37.035331
 30
0.0
 40
0.13469
100
AcDbArc
 50
331.630608
 51
60.315223
  0
ARC
  5
13B8
100
AcDbEntity
  8
BORDER
100
AcDbCircle
 10
130.58365
 20
-36.949178
 30
0.0
 40
0.320358
100
AcDbArc
 50
180.0
 51
0.0
  0
LINE
  5
13B9
100
AcDbEntity
  8
BORDER
100
AcDbLine
 10
130.263292
 20
-36.949178
 30
0.0
 11
130.263292
 21
-36.315719
 31
0.0
  0
LINE
  5
13BA
100
AcDbEntity
  8
BORDER
100
AcDbLine
 10
130.904008
 20
-36.315719
 30
0.0
 11
130.904008
 21
-36.949178
 31
0.0
  0
LINE
  5
13BB
100
AcDbEntity
  8
BORDER
100
AcDbLine
 10
134.970093
 20
-37.269536
 30
0.0
 11
134.39595
 21
-37.269536
 31
0.0
  0
LINE
  5
13BC
100
AcDbEntity
  8
BORDER
100
AcDbLine
 10
134.39595
 20
-36.315719
 30
0.0
 11
134.970093
 21
-36.315719
 31
0.0
  0
LINE
  5
13BD
100
AcDbEntity
  8
BORDER
100
AcDbLine
 10
133.807054
 20
-37.269536
 30
0.0
 11
134.100723
 21
-37.269536
 31
0.0
  0
LINE
  5
13BE
100
AcDbEntity
  8
BORDER
100
AcDbLine
 10
133.807054
 20
-36.315719
 30
0.0
 11
134.100723
 21
-36.315719
 31
0.0
  0
LINE
  5
13BF
100
AcDbEntity
  8
BORDER
100
AcDbLine
 10
132.92606
 20
-36.797224
 30
0.0
 11
133.273002
 21
-36.797224
 31
0.0
  0
LINE
  5
13C0
100
AcDbEntity
  8
BORDER
100
AcDbLine
 10
133.273002
 20
-36.315719
 30
0.0
 11
132.92606
 21
-36.315719
 31
0.0
  0
LINE
  5
13C1
100
AcDbEntity
  8
BORDER
100
AcDbLine
 10
132.92606
 20
-36.315719
 30
0.0
 11
132.92606
 21
-37.269536
 31
0.0
  0
LINE
  5
13C2
100
AcDbEntity
  8
BORDER
100
AcDbLine
 10
133.206496
 20
-36.797224
 30
0.0
 11
133.509004
 21
-37.269536
 31
0.0
  0
ARC
  5
13C3
100
AcDbEntity
  8
BORDER
100
AcDbCircle
 10
133.273002
 20
-36.556472
 30
0.0
 40
0.240752
100
AcDbArc
 50
270.0
 51
90.0
  0
LINE
  5
13C4
100
AcDbEntity
  8
BORDER
100
AcDbLine
 10
134.39595
 20
-37.269536
 30
0.0
 11
134.39595
 21
-36.315719
 31
0.0
  0
LINE
  5
13C5
100
AcDbEntity
  8
BORDER
100
AcDbLine
 10
133.953889
 20
-36.315719
 30
0.0
 11
133.953889
 21
-37.269536
 31
0.0
  0
LINE
  5
13C6
100
AcDbEntity
  8
BORDER
100
AcDbLine
 10
134.39595
 20
-36.792628
 30
0.0
 11
134.844904
 21
-36.792628
 31
0.0
  0
ARC
  5
13C7
100
AcDbEntity
  8
BORDER
100
AcDbCircle
 10
135.466399
 20
-36.967071
 30
0.0
 40
0.301989
100
AcDbArc
 50
200.502447
 51
334.026213
  0
ARC
  5
13C8
100
AcDbEntity
  8
BORDER
100
AcDbCircle
 10
135.428002
 20
-36.610517
 30
0.0
 40
0.295856
100
AcDbArc
 50
25.379638
 51
143.047804
  0
ARC
  5
13C9
100
AcDbEntity
  8
BORDER
100
AcDbCircle
 10
139.634843
 20
-29.991112
 30
0.0
 40
7.973641
100
AcDbArc
 50
236.383068
 51
240.315223
  0
ARC
  5
13CA
100
AcDbEntity
  8
BORDER
100
AcDbCircle
 10
135.294905
 20
-36.519058
 30
0.0
 40
0.13469
100
AcDbArc
 50
140.101426
 51
236.383068
  0
ARC
  5
13CB
100
AcDbEntity
  8
BORDER
100
AcDbCircle
 10
135.619371
 20
-37.035331
 30
0.0
 40
0.13469
100
AcDbArc
 50
331.630608
 51
60.315223
  0
TEXT
  5
13CC
100
AcDbEntity
  8
BORDER
 62
     6
100
AcDbText
 10
215.166147
 20
-36.14313
 30
0.0
 40
1.069214
  1
Revisions
  7
ROMANC
100
AcDbText
  0
LWPOLYLINE
  5
13CD
100
AcDbEntity
  8
BORDER
 62
     5
100
AcDbPolyline
 90
        2
 70
     0
 43
0.794347
 10
228.141139
 20
-32.430743
 10
210.665502
 20
-32.430743
  0
LINE
  5
13CE
100
AcDbEntity
  8
BORDER
100
AcDbLine
 10
228.141139
 20
-34.019438
 30
0.0
 11
210.665502
 21
-34.019438
 31
0.0
  0
LINE
  5
13CF
100
AcDbEntity
  8
BORDER
100
AcDbLine
 10
228.141139
 20
-36.854646
 30
0.0
 11
210.665502
 21
-36.854646
 31
0.0
  0
LINE
  5
13D0
100
AcDbEntity
  8
BORDER
100
AcDbLine
 10
228.141139
 20
-38.44334
 30
0.0
 11
210.665502
 21
-38.44334
 31
0.0
  0
LINE
  5
13D1
100
AcDbEntity
  8
BORDER
100
AcDbLine
 10
228.141139
 20
-40.032035
 30
0.0
 11
210.665502
 21
-40.032035
 31
0.0
  0
LINE
  5
13D2
100
AcDbEntity
  8
BORDER
100
AcDbLine
 10
228.141139
 20
-41.620729
 30
0.0
 11
210.665502
 21
-41.620729
 31
0.0
  0
LINE
  5
13D3
100
AcDbEntity
  8
BORDER
100
AcDbLine
 10
228.141139
 20
-43.209423
 30
0.0
 11
210.665502
 21
-43.209423
 31
0.0
  0
TEXT
  5
13D4
100
AcDbEntity
  8
BORDER
 62
     6
100
AcDbText
 10
212.390712
 20
-38.044812
 30
0.0
 40
0.794347
  1
First Released 06/27/03
  7
ROMAND
100
AcDbText
  0
LINE
  5
13D5
100
AcDbEntity
  8
BORDER
100
AcDbLine
 10
228.141139
 20
-45.140297
 30
0.0
 11
209.076808
 21
-45.140297
 31
0.0
  0
TEXT
  5
13D6
100
AcDbEntity
  8
BORDER
 62
     6
100
AcDbText
 10
175.355367
 20
-44.501999
 30
0.0
 40
0.913499
  1
06/26/03
  7
ROMAND
100
AcDbText
  0
LINE
  5
13D7
100
AcDbEntity
  8
BORDER
100
AcDbLine
 10
143.107756
 20
-45.140297
 30
0.0
 11
180.584386
 21
-45.140297
 31
0.0
  0
LINE
  5
13D8
100
AcDbEntity
  8
BORDER
100
AcDbLine
 10
144.69645
 20
-34.019438
 30
0.0
 11
180.584386
 21
-34.019438
 31
0.0
  0
LINE
  5
13D9
100
AcDbEntity
  8
BORDER
100
AcDbLine
 10
143.107756
 20
-40.374214
 30
0.0
 11
180.584386
 21
-40.374214
 31
0.0
  0
LINE
  5
13DA
100
AcDbEntity
  8
BORDER
100
AcDbLine
 10
143.107756
 20
-41.515458
 30
0.0
 11
180.584386
 21
-41.515458
 31
0.0
  0
LWPOLYLINE
  5
13DB
100
AcDbEntity
  8
BORDER
 62
     5
100
AcDbPolyline
 90
        2
 70
     0
 43
0.794347
 10
144.69645
 20
-32.430743
 10
202.722031
 20
-32.430743
  0
LINE
  5
13DC
100
AcDbEntity
  8
BORDER
100
AcDbLine
 10
167.323307
 20
-34.019438
 30
0.0
 11
202.722031
 21
-34.019438
 31
0.0
  0
LINE
  5
13DD
100
AcDbEntity
  8
BORDER
100
AcDbLine
 10
167.323307
 20
-40.374214
 30
0.0
 11
204.310725
 21
-40.374214
 31
0.0
  0
LINE
  5
13DE
100
AcDbEntity
  8
BORDER
100
AcDbLine
 10
167.323307
 20
-45.140297
 30
0.0
 11
185.246395
 21
-45.140297
 31
0.0
  0
LINE
  5
13DF
100
AcDbEntity
  8
BORDER
100
AcDbLine
 10
167.323307
 20
-41.515458
 30
0.0
 11
185.246395
 21
-41.515458
 31
0.0
  0
TEXT
  5
13E0
100
AcDbEntity
  8
BORDER
 62
     6
100
AcDbText
 10
149.695
 20
-43.65782
 30
0.0
 40
0.605888
  1
Rochester, IN  46975
  7
ROMANC
100
AcDbText
  0
TEXT
  5
13E1
100
AcDbEntity
  8
BORDER
 62
     6
100
AcDbText
 10
147.085877
 20
-42.581818
 30
0.0
 40
0.605888
  1
Highway 25 North P.O. Box 420
  7
ROMANC
100
AcDbText
  0
TEXT
  5
13E2
100
AcDbEntity
  8
BORDER
 62
     6
100
AcDbText
 10
148.013522
 20
-36.289632
 30
0.0
 40
0.819731
  1
SOLID STEEL COVER
  7
ROMANC
100
AcDbText
  0
LINE
  5
13E3
100
AcDbEntity
  8
BORDER
100
AcDbLine
 10
143.107756
 20
-37.688347
 30
0.0
 11
167.323307
 21
-37.688347
 31
0.0
  0
TEXT
  5
13E4
100
AcDbEntity
  8
BORDER
 62
     6
100
AcDbText
 10
144.224641
 20
-44.876384
 30
0.0
 40
0.605888
  1
Phone: 800/354-4534  Fax: 574/223-6106
  7
ROMANC
100
AcDbText
  0
LINE
  5
13E5
100
AcDbEntity
  8
BORDER
100
AcDbLine
 10
143.107756
 20
-45.140297
 30
0.0
 11
143.107756
 21
-41.515458
 31
0.0
  0
LWPOLYLINE
  5
13E6
100
AcDbEntity
  8
BORDER
 62
     5
100
AcDbPolyline
 90
        2
 70
     0
 43
0.794347
 10
141.519062
 20
-35.608132
 10
141.519062
 20
-45.140297
  0
LWPOLYLINE
  5
13E7
100
AcDbEntity
  8
BORDER
 62
     5
100
AcDbPolyline
 90
        2
 70
     0
 43
0.794347
 10
139.930368
 20
-45.140297
 10
139.930368
 20
-35.608132
  0
LINE
  5
13E8
100
AcDbEntity
  8
BORDER
100
AcDbLine
 10
138.341673
 20
-45.140297
 30
0.0
 11
138.341673
 21
-35.608132
 31
0.0
  0
TEXT
  5
13E9
100
AcDbEntity
  8
BORDER
 62
     6
100
AcDbText
 10
143.337953
 20
-38.746735
 30
0.0
 40
0.712809
  1
Reference:
  7
ROMANC
100
AcDbText
  0
LINE
  5
13EA
100
AcDbEntity
  8
BORDER
100
AcDbLine
 10
143.107756
 20
-40.374214
 30
0.0
 11
143.107756
 21
-35.608132
 31
0.0
  0
LWPOLYLINE
  5
13EB
100
AcDbEntity
  8
BORDER
 62
     5
100
AcDbPolyline
 90
        2
 70
     0
 43
0.794347
 10
144.69645
 20
-32.430743
 42
0.414214
 10
141.519062
 20
-35.608132
 42
-0.560527
  0
ARC
  5
13EC
100
AcDbEntity
  8
BORDER
100
AcDbCircle
 10
144.69645
 20
-35.608132
 30
0.0
 40
1.588694
100
AcDbArc
 50
90.0
 51
180.0
  0
TEXT
  5
13ED
100
AcDbEntity
  8
BORDER
 62
     6
100
AcDbText
 10
154.593739
 20
-39.252105
 30
0.0
 40
0.712809
  1
-
  7
ROMANC
100
AcDbText
  0
LINE
  5
13EE
100
AcDbEntity
  8
BORDER
100
AcDbLine
 10
167.323307
 20
-45.140297
 30
0.0
 11
167.323307
 21
-41.515458
 31
0.0
  0
TEXT
  5
13EF
100
AcDbEntity
  8
BORDER
 62
     6
100
AcDbText
 10
167.689564
 20
-43.909854
 30
0.0
 40
0.712809
  1
Prior To:
  7
ROMANC
100
AcDbText
  0
TEXT
  5
13F0
100
AcDbEntity
  8
BORDER
 62
     6
100
AcDbText
 10
167.648931
 20
-36.769409
 30
0.0
 40
0.712809
  1
Drawn By:
  7
ROMANC
100
AcDbText
  0
TEXT
  5
13F1
100
AcDbEntity
  8
BORDER
 62
     6
100
AcDbText
 10
167.689564
 20
-42.755782
 30
0.0
 40
0.712809
  1
Supersedes Prints
  7
ROMANC
100
AcDbText
  0
TEXT
  5
13F2
100
AcDbEntity
  8
BORDER
 62
     6
100
AcDbText
 10
167.648931
 20
-40.166183
 30
0.0
 40
0.712809
  1
Date: 06/26/03
  7
ROMANC
100
AcDbText
  0
TEXT
  5
13F3
100
AcDbEntity
  8
BORDER
 62
     6
100
AcDbText
 10
167.648931
 20
-38.467796
 30
0.0
 40
0.712809
  1
Appv'd By: .
  7
ROMANC
100
AcDbText
  0
TEXT
  5
13F4
100
AcDbEntity
  8
BORDER
 62
     6
100
AcDbText
 10
167.648931
 20
-35.071023
 30
0.0
 40
0.712809
  1
Scale: None
  7
ROMANC
100
AcDbText
  0
LINE
  5
13F5
100
AcDbEntity
  8
BORDER
100
AcDbLine
 10
167.323307
 20
-40.374214
 30
0.0
 11
167.323307
 21
-34.019438
 31
0.0
  0
TEXT
  5
13F6
100
AcDbEntity
  8
BORDER
 62
     6
100
AcDbText
 10
174.190549
 20
-36.845323
 30
0.0
 40
0.972207
  1
RM
  7
COUNTRYBLUEPRINT
100
AcDbText
  0
LINE
  5
13F7
100
AcDbEntity
  8
BORDER
100
AcDbLine
 10
186.387638
 20
-41.515458
 30
0.0
 11
204.310725
 21
-41.515458
 31
0.0
  0
LINE
  5
13F8
100
AcDbEntity
  8
BORDER
100
AcDbLine
 10
186.387638
 20
-45.140297
 30
0.0
 11
204.310725
 21
-45.140297
 31
0.0
  0
TEXT
  5
13F9
100
AcDbEntity
  8
BORDER
 62
     6
100
AcDbText
 10
192.859493
 20
-44.329957
 30
0.0
 40
2.138427
  1
10087
  7
ROMANC
100
AcDbText
  0
TEXT
  5
13FA
100
AcDbEntity
  8
BORDER
 62
     6
100
AcDbText
 10
179.31223
 20
-35.111318
 30
0.0
 40
0.596286
  1
This print is and contains confidential proprietary information owned exclusively
 41
0.656934
  7
ROMANS
 72
     5
 11
203.878705
 21
-35.111318
 31
0.0
100
AcDbText
  0
TEXT
  5
13FB
100
AcDbEntity
  8
BORDER
 62
     6
100
AcDbText
 10
179.31223
 20
-36.076734
 30
0.0
 40
0.596286
  1
by TOPP INDUSTRIES, INC. It is furnished on a strictly confidential basis.  This
 41
0.659437
  7
ROMANS
 72
     5
 11
203.878705
 21
-36.076734
 31
0.0
100
AcDbText
  0
TEXT
  5
13FC
100
AcDbEntity
  8
BORDER
 62
     6
100
AcDbText
 10
179.31223
 20
-37.042149
 30
0.0
 40
0.596286
  1
restriction includes, but is not limited to the condition that this print will not only
 41
0.626489
  7
ROMANS
 72
     5
 11
203.878705
 21
-37.042149
 31
0.0
100
AcDbText
  0
TEXT
  5
13FD
100
AcDbEntity
  8
BORDER
 62
     6
100
AcDbText
 10
179.31223
 20
-38.007565
 30
0.0
 40
0.596286
  1
be used as a record or to identify or inspect parts or for other information purposes
 41
0.596266
  7
ROMANS
 72
     5
 11
203.878705
 21
-38.007565
 31
0.0
100
AcDbText
  0
TEXT
  5
13FE
100
AcDbEntity
  8
BORDER
 62
     6
100
AcDbText
 10
179.31223
 20
-38.972981
 30
0.0
 40
0.596286
  1
and will not be used to manufacture or procure the manufacture of the items shown
 41
0.600404
  7
ROMANS
 72
     5
 11
203.878705
 21
-38.972981
 31
0.0
100
AcDbText
  0
TEXT
  5
13FF
100
AcDbEntity
  8
BORDER
 62
     6
100
AcDbText
 10
179.31223
 20
-39.938396
 30
0.0
 40
0.596286
  1
in this print by any other source than TOPP INDUSTRIES, INC.
 41
0.839168
  7
ROMANS
 72
     5
 11
203.878705
 21
-39.938396
 31
0.0
100
AcDbText
  0
LINE
  5
1400
100
AcDbEntity
  8
BORDER
100
AcDbLine
 10
186.387638
 20
-41.515458
 30
0.0
 11
186.387638
 21
-45.140297
 31
0.0
  0
LINE
  5
1401
100
AcDbEntity
  8
BORDER
100
AcDbLine
 10
185.246395
 20
-41.515458
 30
0.0
 11
185.246395
 21
-45.140297
 31
0.0
  0
TEXT
  5
1402
100
AcDbEntity
  8
BORDER
 62
     6
100
AcDbText
 10
186.762775
 20
-42.676793
 30
0.0
 40
0.712809
  1
Reference
  7
ROMANC
100
AcDbText
  0
TEXT
  5
1403
100
AcDbEntity
  8
BORDER
 62
     6
100
AcDbText
 10
186.762775
 20
-43.830865
 30
0.0
 40
0.712809
  1
No:
  7
ROMANC
100
AcDbText
  0
LWPOLYLINE
  5
1404
100
AcDbEntity
  8
BORDER
 62
     5
100
AcDbPolyline
 90
        2
 70
     0
 43
0.794347
 10
205.89942
 20
-45.140297
 10
205.89942
 20
-35.608132
  0
LWPOLYLINE
  5
1405
100
AcDbEntity
  8
BORDER
 62
     5
100
AcDbPolyline
 90
        2
 70
     0
 43
0.794347
 10
207.488114
 20
-45.140297
 10
207.488114
 20
-35.608132
  0
LINE
  5
1406
100
AcDbEntity
  8
BORDER
100
AcDbLine
 10
209.076808
 20
-45.140297
 30
0.0
 11
209.076808
 21
-35.608132
 31
0.0
  0
LINE
  5
1407
100
AcDbEntity
  8
BORDER
100
AcDbLine
 10
204.310725
 20
-41.515458
 30
0.0
 11
204.310725
 21
-45.140297
 31
0.0
  0
LWPOLYLINE
  5
1408
100
AcDbEntity
  8
BORDER
 62
     5
100
AcDbPolyline
 90
        2
 70
     0
 43
0.794347
 10
210.665502
 20
-32.430743
 42
0.414214
 10
207.488114
 20
-35.608132
 42
-0.560527
  0
ARC
  5
1409
100
AcDbEntity
  8
BORDER
100
AcDbCircle
 10
210.665502
 20
-35.608132
 30
0.0
 40
1.588694
100
AcDbArc
 50
90.0
 51
180.0
  0
LINE
  5
140A
100
AcDbEntity
  8
BORDER
100
AcDbLine
 10
204.310725
 20
-35.608132
 30
0.0
 11
204.310725
 21
-40.374214
 31
0.0
  0
LWPOLYLINE
  5
140B
100
AcDbEntity
  8
BORDER
 62
     5
100
AcDbPolyline
 90
        2
 70
     0
 43
0.794347
 10
202.722031
 20
-32.430743
 42
-0.414214
 10
205.89942
 20
-35.608132
 42
0.560527
  0
ARC
  5
140C
100
AcDbEntity
  8
BORDER
100
AcDbCircle
 10
202.722031
 20
-35.608132
 30
0.0
 40
1.588694
100
AcDbArc
 50
0.0
 51
90.0
  0
LINE
  5
140D
100
AcDbEntity
  8
BORDER
100
AcDbLine
 10
212.254197
 20
-36.854646
 30
0.0
 11
212.254197
 21
-43.209423
 31
0.0
  0
LINE
  5
140E
100
AcDbEntity
  8
BORDER
100
AcDbLine
 10
210.665502
 20
-36.854646
 30
0.0
 11
210.665502
 21
-43.209423
 31
0.0
  0
LWPOLYLINE
  5
140F
100
AcDbEntity
  8
BORDER
100
AcDbPolyline
 90
        6
 70
     1
 43
0.0
 10
211.798079
 20
-38.238081
 10
212.136551
 20
-37.651831
 10
211.798079
 20
-37.06558
 10
211.121135
 20
-37.06558
 10
210.782663
 20
-37.651831
 10
211.121135
 20
-38.238081
  0
TEXT
  5
1410
100
AcDbEntity
  8
BORDER
 62
     6
100
AcDbText
 10
211.082353
 20
-38.044812
 30
0.0
 40
0.794347
  1
1
  7
ROMAND
100
AcDbText
  0
ARC
  5
1411
100
AcDbEntity
  8
BORDER
100
AcDbCircle
 10
228.141139
 20
-43.551603
 30
0.0
 40
1.588694
100
AcDbArc
 50
270.0
 51
0.0
  0
LWPOLYLINE
  5
1412
100
AcDbEntity
  8
BORDER
 62
     5
100
AcDbPolyline
 90
        2
 70
     0
 43
0.794347
 10
228.141139
 20
-46.728991
 42
0.414214
 10
231.318527
 20
-43.551603
 42
-0.560527
  0
LWPOLYLINE
  5
1413
100
AcDbEntity
  8
BORDER
 62
     5
100
AcDbPolyline
 90
        2
 70
     0
 43
0.794347
 10
228.141139
 20
-32.430743
 42
-0.414214
 10
231.318527
 20
-35.608132
 42
0.560527
  0
LWPOLYLINE
  5
1414
100
AcDbEntity
  8
BORDER
 62
     5
100
AcDbPolyline
 90
        2
 70
     0
 43
0.794347
 10
231.318527
 20
-35.608132
 10
231.318527
 20
-43.551603
  0
LINE
  5
1415
100
AcDbEntity
  8
BORDER
100
AcDbLine
 10
229.729833
 20
-43.551603
 30
0.0
 11
229.729833
 21
-35.608132
 31
0.0
  0
LINE
  5
1416
100
AcDbEntity
  8
BORDER
100
AcDbLine
 10
228.141139
 20
-36.854646
 30
0.0
 11
228.141139
 21
-43.209423
 31
0.0
  0
ARC
  5
1417
100
AcDbEntity
  8
BORDER
100
AcDbCircle
 10
228.141139
 20
-35.608132
 30
0.0
 40
1.588694
100
AcDbArc
 50
0.0
 51
90.0
  0
LINE
  5
1418
100
AcDbEntity
  8
LIMITS
 62
     7
100
AcDbLine
 10
233.860438
 20
105.779072
 30
0.0
 11
113.558043
 21
105.779072
 31
0.0
  0
LINE
  5
1419
100
AcDbEntity
  8
BORDER
 62
     5
100
AcDbLine
 10
230.047572
 20
103.237161
 30
0.0
 11
117.370909
 21
103.237161
 31
0.0
  0
LWPOLYLINE
  5
141A
100
AcDbEntity
  8
BORDER
 62
     5
100
AcDbPolyline
 90
        2
 70
     0
 43
0.317739
 10
230.047572
 20
103.237161
 10
117.370909
 20
103.237161
  0
LWPOLYLINE
  5
1607
100
AcDbEntity
  8
DIM
 62
     6
100
AcDbPolyline
 90
        2
 70
     0
 43
0.25
 39
20.0
 10
134.393241
 20
27.132153
 10
206.656732
 20
27.132153
  0
LWPOLYLINE
  5
1616
100
AcDbEntity
  8
DIM
 62
     6
100
AcDbPolyline
 90
        2
 70
     0
 43
0.25
 39
20.0
 10
134.393241
 20
21.132153
 10
206.656732
 20
21.132153
  0
TEXT
  5
1617
100
AcDbEntity
  8
DIM
 62
     6
100
AcDbText
 10
135.404334
 20
23.82641
 30
0.0
 40
1.5
  1
C18-14WS
  7
ROMANS
100
AcDbText
  0
TEXT
  5
161C
100
AcDbEntity
  8
DIM
 62
     6
100
AcDbText
 10
197.767917
 20
24.498762
 30
0.0
 40
1.5
  1
14 Ga.
  7
ROMANS
100
AcDbText
  0
TEXT
  5
161E
100
AcDbEntity
  8
DIM
 62
     6
100
AcDbText
 10
135.404334
 20
18.129277
 30
0.0
 40
1.5
  1
C18-WSH
  7
ROMANS
100
AcDbText
  0
TEXT
  5
1620
100
AcDbEntity
  8
DIM
 62
     6
100
AcDbText
 10
164.549019
 20
19.05267
 30
0.0
 40
1.5
  1
18
  7
ROMANS
100
AcDbText
  0
TEXT
  5
1621
100
AcDbEntity
  8
DIM
 62
     6
100
AcDbText
 10
172.535524
 20
18.969252
 30
0.0
 40
1.5
  1
20 1/2
  7
ROMANS
100
AcDbText
  0
TEXT
  5
1634
100
AcDbEntity
  8
DIM
 62
     6
100
AcDbText
 10
162.712391
 20
16.550127
 30
0.0
 40
1.5
  1
18X18
  7
ROMANS
100
AcDbText
  0
TEXT
  5
1635
100
AcDbEntity
  8
DIM
 62
     6
100
AcDbText
 10
171.375993
 20
16.54534
 30
0.0
 40
1.125
  1
20.5 X 20.5
  7
ROMANS
100
AcDbText
  0
TEXT
  5
1640
100
AcDbEntity
  8
DIM
 62
     6
100
AcDbText
 10
151.620159
 20
16.404203
 30
0.0
 40
1.5
  1
SQUARE
  7
ROMANS
100
AcDbText
  0
TEXT
  5
1641
100
AcDbEntity
  8
DIM
 62
     6
100
AcDbText
 10
151.620159
 20
18.404203
 30
0.0
 40
1.5
  1
ROUND
  7
ROMANS
100
AcDbText
  0
TEXT
  5
1642
100
AcDbEntity
  8
DIM
 62
     6
100
AcDbText
 10
151.620159
 20
22.101336
 30
0.0
 40
1.5
  1
SQUARE
  7
ROMANS
100
AcDbText
  0
TEXT
  5
1643
100
AcDbEntity
  8
DIM
 62
     6
100
AcDbText
 10
151.620159
 20
24.101336
 30
0.0
 40
1.5
  1
ROUND
  7
ROMANS
100
AcDbText
  0
TEXT
  5
1644
100
AcDbEntity
  8
DIM
 62
     6
100
AcDbText
 10
162.712391
 20
22.24726
 30
0.0
 40
1.5
  1
18X18
  7
ROMANS
100
AcDbText
  0
TEXT
  5
1645
100
AcDbEntity
  8
DIM
 62
     6
100
AcDbText
 10
164.549019
 20
24.749803
 30
0.0
 40
1.5
  1
18
  7
ROMANS
100
AcDbText
  0
TEXT
  5
1646
100
AcDbEntity
  8
DIM
 62
     6
100
AcDbText
 10
172.535524
 20
24.666385
 30
0.0
 40
1.5
  1
20 1/2
  7
ROMANS
100
AcDbText
  0
TEXT
  5
1647
100
AcDbEntity
  8
DIM
 62
     6
100
AcDbText
 10
171.375993
 20
22.242473
 30
0.0
 40
1.125
  1
20.5 X 20.5
  7
ROMANS
100
AcDbText
  0
TEXT
  5
1648
100
AcDbEntity
  8
DIM
 62
     6
100
AcDbText
 10
183.655871
 20
16.54534
 30
0.0
 40
1.125
  1
19.5 X 19.5
  7
ROMANS
100
AcDbText
  0
TEXT
  5
1649
100
AcDbEntity
  8
DIM
 62
     6
100
AcDbText
 10
184.815402
 20
18.969252
 30
0.0
 40
1.5
  1
19 1/2
  7
ROMANS
100
AcDbText
  0
TEXT
  5
164A
100
AcDbEntity
  8
DIM
 62
     6
100
AcDbText
 10
183.655871
 20
22.242473
 30
0.0
 40
1.125
  1
19.5 X 19.5
  7
ROMANS
100
AcDbText
  0
TEXT
  5
164B
100
AcDbEntity
  8
DIM
 62
     6
100
AcDbText
 10
184.815402
 20
24.666385
 30
0.0
 40
1.5
  1
19 1/2
  7
ROMANS
100
AcDbText
  0
TEXT
  5
164C
100
AcDbEntity
  8
DIM
 62
     6
100
AcDbText
 10
197.767917
 20
22.423903
 30
0.0
 40
1.5
  1
14 Ga.
  7
ROMANS
100
AcDbText
  0
TEXT
  5
164D
100
AcDbEntity
  8
DIM
 62
     6
100
AcDbText
 10
197.767917
 20
18.404203
 30
0.0
 40
1.5
  1
 .25
  7
ROMANS
100
AcDbText
  0
TEXT
  5
164E
100
AcDbEntity
  8
DIM
 62
     6
100
AcDbText
 10
197.767917
 20
16.404203
 30
0.0
 40
1.5
  1
 .25
  7
ROMANS
100
AcDbText
  0
ENDSEC
  0
SECTION
  2
OBJECTS
  0
DICTIONARY
  5
C
100
AcDbDictionary
  3
ACAD_GROUP
350
D
  3
ACAD_MLINESTYLE
350
1A
  3
ACDBVARIABLEDICTIONARY
350
38
  0
DICTIONARY
  5
D
102
{ACAD_REACTORS
330
C
102
}
100
AcDbDictionary
  0
DICTIONARY
  5
1A
102
{ACAD_REACTORS
330
C
102
}
100
AcDbDictionary
  3
STANDARD
350
1B
  0
DICTIONARY
  5
38
102
{ACAD_REACTORS
330
C
102
}
100
AcDbDictionary
  3
DIMADEC
350
39
  0
MLINESTYLE
  5
1B
102
{ACAD_REACTORS
330
1A
102
}
100
AcDbMlineStyle
  2
STANDARD
 70
     0
  3

 62
   256
 51
90.0
 52
90.0
 71
     2
 49
0.5
 62
   256
  6
BYLAYER
 49
-0.5
 62
   256
  6
BYLAYER
  0
DICTIONARYVAR
  5
39
102
{ACAD_REACTORS
330
38
102
}
100
DictionaryVariables
280
     0
  1
0
  0
ENDSEC
  0
EOF
