  0
SECTION
  2
HEADER
  9
$ACADVER
  1
AC1014
  9
$ACADMAINTVER
 70
     0
  9
$DWGCODEPAGE
  3
ANSI_1252
  9
$INSBASE
 10
0.0
 20
0.0
 30
0.0
  9
$EXTMIN
 10
182.738122
 20
131.117204
 30
-0.00015
  9
$EXTMAX
 10
267.747758
 20
241.118786
 30
8.425945
  9
$LIMMIN
 10
85.512347
 20
143.515766
  9
$LIMMAX
 10
126.785467
 20
197.409264
  9
$ORTHOMODE
 70
     0
  9
$REGENMODE
 70
     1
  9
$FILLMODE
 70
     1
  9
$QTEXTMODE
 70
     0
  9
$MIRRTEXT
 70
     1
  9
$DRAGMODE
 70
     2
  9
$LTSCALE
 40
1.0
  9
$OSMODE
 70
   675
  9
$ATTMODE
 70
     1
  9
$TEXTSIZE
 40
0.5
  9
$TRACEWID
 40
0.05
  9
$TEXTSTYLE
  7
ROMANS
  9
$CLAYER
  8
HATCH
  9
$CELTYPE
  6
BYLAYER
  9
$CECOLOR
 62
   256
  9
$CELTSCALE
 40
1.0
  9
$DELOBJ
 70
     1
  9
$DISPSILH
 70
     0
  9
$DIMSCALE
 40
1.0
  9
$DIMASZ
 40
0.75
  9
$DIMEXO
 40
0.0625
  9
$DIMDLI
 40
0.38
  9
$DIMRND
 40
0.0
  9
$DIMDLE
 40
0.0
  9
$DIMEXE
 40
0.18
  9
$DIMTP
 40
0.0
  9
$DIMTM
 40
0.0
  9
$DIMTXT
 40
0.18
  9
$DIMCEN
 40
0.09
  9
$DIMTSZ
 40
0.0
  9
$DIMTOL
 70
     0
  9
$DIMLIM
 70
     0
  9
$DIMTIH
 70
     1
  9
$DIMTOH
 70
     1
  9
$DIMSE1
 70
     0
  9
$DIMSE2
 70
     0
  9
$DIMTAD
 70
     0
  9
$DIMZIN
 70
     0
  9
$DIMBLK
  1

  9
$DIMASO
 70
     1
  9
$DIMSHO
 70
     1
  9
$DIMPOST
  1

  9
$DIMAPOST
  1

  9
$DIMALT
 70
     0
  9
$DIMALTD
 70
     2
  9
$DIMALTF
 40
25.4
  9
$DIMLFAC
 40
1.0
  9
$DIMTOFL
 70
     0
  9
$DIMTVP
 40
0.0
  9
$DIMTIX
 70
     0
  9
$DIMSOXD
 70
     0
  9
$DIMSAH
 70
     0
  9
$DIMBLK1
  1

  9
$DIMBLK2
  1

  9
$DIMSTYLE
  2
STANDARD
  9
$DIMCLRD
 70
     0
  9
$DIMCLRE
 70
     0
  9
$DIMCLRT
 70
     0
  9
$DIMTFAC
 40
1.0
  9
$DIMGAP
 40
0.09
  9
$DIMJUST
 70
     0
  9
$DIMSD1
 70
     0
  9
$DIMSD2
 70
     0
  9
$DIMTOLJ
 70
     1
  9
$DIMTZIN
 70
     0
  9
$DIMALTZ
 70
     0
  9
$DIMALTTZ
 70
     0
  9
$DIMFIT
 70
     5
  9
$DIMUPT
 70
     0
  9
$DIMUNIT
 70
     2
  9
$DIMDEC
 70
     4
  9
$DIMTDEC
 70
     4
  9
$DIMALTU
 70
     2
  9
$DIMALTTD
 70
     2
  9
$DIMTXSTY
  7
ROMANS
  9
$DIMAUNIT
 70
     0
  9
$LUNITS
 70
     2
  9
$LUPREC
 70
     4
  9
$SKETCHINC
 40
0.1
  9
$FILLETRAD
 40
0.1016
  9
$AUNITS
 70
     0
  9
$AUPREC
 70
     0
  9
$MENU
  1
acad
  9
$ELEVATION
 40
0.0
  9
$PELEVATION
 40
0.0
  9
$THICKNESS
 40
0.0
  9
$LIMCHECK
 70
     0
  9
$BLIPMODE
 70
     0
  9
$CHAMFERA
 40
0.375
  9
$CHAMFERB
 40
0.375
  9
$CHAMFERC
 40
0.0
  9
$CHAMFERD
 40
0.0
  9
$SKPOLY
 70
     0
  9
$TDCREATE
 40
2449611.441391088
  9
$TDUPDATE
 40
2453101.345804352
  9
$TDINDWG
 40
0.3551008796
  9
$TDUSRTIMER
 40
0.3551008796
  9
$USRTIMER
 70
     1
  9
$ANGBASE
 50
0.0
  9
$ANGDIR
 70
     0
  9
$PDMODE
 70
     0
  9
$PDSIZE
 40
0.0
  9
$PLINEWID
 40
0.0
  9
$COORDS
 70
     0
  9
$SPLFRAME
 70
     0
  9
$SPLINETYPE
 70
     6
  9
$SPLINESEGS
 70
     8
  9
$ATTDIA
 70
     0
  9
$ATTREQ
 70
     1
  9
$HANDLING
 70
     1
  9
$HANDSEED
  5
27C7
  9
$SURFTAB1
 70
     6
  9
$SURFTAB2
 70
     6
  9
$SURFTYPE
 70
     6
  9
$SURFU
 70
     6
  9
$SURFV
 70
     6
  9
$UCSNAME
  2

  9
$UCSORG
 10
0.0
 20
0.0
 30
0.0
  9
$UCSXDIR
 10
1.0
 20
0.0
 30
0.0
  9
$UCSYDIR
 10
0.0
 20
1.0
 30
0.0
  9
$PUCSNAME
  2

  9
$PUCSORG
 10
0.0
 20
0.0
 30
0.0
  9
$PUCSXDIR
 10
1.0
 20
0.0
 30
0.0
  9
$PUCSYDIR
 10
0.0
 20
1.0
 30
0.0
  9
$USERI1
 70
     0
  9
$USERI2
 70
     0
  9
$USERI3
 70
     0
  9
$USERI4
 70
     0
  9
$USERI5
 70
     0
  9
$USERR1
 40
0.0
  9
$USERR2
 40
0.0
  9
$USERR3
 40
0.0
  9
$USERR4
 40
0.0
  9
$USERR5
 40
0.0
  9
$WORLDVIEW
 70
     1
  9
$SHADEDGE
 70
     3
  9
$SHADEDIF
 70
    70
  9
$TILEMODE
 70
     1
  9
$MAXACTVP
 70
    16
  9
$PINSBASE
 10
0.0
 20
0.0
 30
0.0
  9
$PLIMCHECK
 70
     0
  9
$PEXTMIN
 10
1.000000E+20
 20
1.000000E+20
 30
1.000000E+20
  9
$PEXTMAX
 10
-1.000000E+20
 20
-1.000000E+20
 30
-1.000000E+20
  9
$PLIMMIN
 10
0.0
 20
0.0
  9
$PLIMMAX
 10
12.0
 20
9.0
  9
$UNITMODE
 70
     0
  9
$VISRETAIN
 70
     0
  9
$PLINEGEN
 70
     0
  9
$PSLTSCALE
 70
     1
  9
$TREEDEPTH
 70
  3020
  9
$PICKSTYLE
 70
     1
  9
$CMLSTYLE
  2
STANDARD
  9
$CMLJUST
 70
     0
  9
$CMLSCALE
 40
1.0
  9
$PROXYGRAPHICS
 70
     1
  9
$MEASUREMENT
 70
     0
  0
ENDSEC
  0
SECTION
  2
CLASSES
  0
CLASS
  1
DICTIONARYVAR
  2
AcDbDictionaryVar
  3
"AutoCAD"
 90
        0
280
     0
281
     0
  0
CLASS
  1
LWPOLYLINE
  2
AcDbPolyline
  3
"AutoCAD"
 90
        0
280
     0
281
     1
  0
CLASS
  1
HATCH
  2
AcDbHatch
  3
"ACAD_SEDONA"
 90
        0
280
     0
281
     1
  0
ENDSEC
  0
SECTION
  2
TABLES
  0
TABLE
  2
VPORT
  5
8
100
AcDbSymbolTable
 70
     2
  0
VPORT
  5
27C6
100
AcDbSymbolTableRecord
100
AcDbViewportTableRecord
  2
*ACTIVE
 70
     0
 10
0.0
 20
0.0
 11
1.0
 21
1.0
 12
225.24294
 22
186.117995
 13
0.0
 23
0.0
 14
0.5
 24
0.5
 15
0.0
 25
0.0
 16
0.0
 26
0.0
 36
1.0
 17
0.0
 27
0.0
 37
0.0
 40
111.199422
 41
1.750909
 42
50.0
 43
0.0
 44
0.0
 50
0.0
 51
0.0
 71
     0
 72
   100
 73
     1
 74
     0
 75
     0
 76
     0
 77
     0
 78
     1
  0
ENDTAB
  0
TABLE
  2
LTYPE
  5
5
100
AcDbSymbolTable
 70
     2
  0
LTYPE
  5
11
100
AcDbSymbolTableRecord
100
AcDbLinetypeTableRecord
  2
BYBLOCK
 70
     0
  3

 72
    65
 73
     0
 40
0.0
  0
LTYPE
  5
12
100
AcDbSymbolTableRecord
100
AcDbLinetypeTableRecord
  2
BYLAYER
 70
     0
  3

 72
    65
 73
     0
 40
0.0
  0
LTYPE
  5
13
100
AcDbSymbolTableRecord
100
AcDbLinetypeTableRecord
  2
CONTINUOUS
 70
     0
  3
Solid line
 72
    65
 73
     0
 40
0.0
  0
LTYPE
  5
2B
100
AcDbSymbolTableRecord
100
AcDbLinetypeTableRecord
  2
CENTER
 70
     0
  3
____ _ ____ _ ____ _ ____ _ ____ _ ____ _ ____ 
 72
    65
 73
     4
 40
2.0
 49
1.25
 74
     0
 49
-0.25
 74
     0
 49
0.25
 74
     0
 49
-0.25
 74
     0
  0
ENDTAB
  0
TABLE
  2
LAYER
  5
2
100
AcDbSymbolTable
 70
     8
  0
LAYER
  5
E
100
AcDbSymbolTableRecord
100
AcDbLayerTableRecord
  2
0
 70
     0
 62
     7
  6
CONTINUOUS
  0
LAYER
  5
2F
100
AcDbSymbolTableRecord
100
AcDbLayerTableRecord
  2
DIM
 70
     0
 62
     6
  6
CONTINUOUS
  0
LAYER
  5
30
100
AcDbSymbolTableRecord
100
AcDbLayerTableRecord
  2
BORDER
 70
     0
 62
     5
  6
CONTINUOUS
  0
LAYER
  5
31
100
AcDbSymbolTableRecord
100
AcDbLayerTableRecord
  2
OBJECT
 70
     0
 62
     2
  6
CONTINUOUS
  0
LAYER
  5
32
100
AcDbSymbolTableRecord
100
AcDbLayerTableRecord
  2
CENTER
 70
     0
 62
     3
  6
CENTER
  0
LAYER
  5
33
100
AcDbSymbolTableRecord
100
AcDbLayerTableRecord
  2
HATCH
 70
     0
 62
     4
  6
CONTINUOUS
  0
LAYER
  5
1B83
100
AcDbSymbolTableRecord
100
AcDbLayerTableRecord
  2
LIMITS
 70
     0
 62
     7
  6
CONTINUOUS
  0
LAYER
  5
1F44
100
AcDbSymbolTableRecord
100
AcDbLayerTableRecord
  2
15
 70
     0
 62
     4
  6
CONTINUOUS
  0
ENDTAB
  0
TABLE
  2
STYLE
  5
3
100
AcDbSymbolTable
 70
     4
  0
STYLE
  5
F
100
AcDbSymbolTableRecord
100
AcDbTextStyleTableRecord
  2
STANDARD
 70
     0
 40
0.0
 41
1.0
 50
0.0
 71
     0
 42
0.2
  3
txt
  4

  0
STYLE
  5
26
100
AcDbSymbolTableRecord
100
AcDbTextStyleTableRecord
  2
ROMANS
 70
     0
 40
0.5
 41
1.0
 50
0.0
 71
     0
 42
0.5
  3
romans
  4

  0
STYLE
  5
28
100
AcDbSymbolTableRecord
100
AcDbTextStyleTableRecord
  2
ROMAND
 70
     0
 40
1.5
 41
1.0
 50
0.0
 71
     0
 42
1.5
  3
ROMAND.SHX
  4

  0
STYLE
  5
1B84
100
AcDbSymbolTableRecord
100
AcDbTextStyleTableRecord
  2
COUNTRYBLUEPRINT
 70
     0
 40
0.061059
 41
1.0
 50
0.0
 71
     0
 42
0.061059
  3
cobt____.pfb
  4

  0
ENDTAB
  0
TABLE
  2
VIEW
  5
6
100
AcDbSymbolTable
 70
     0
  0
ENDTAB
  0
TABLE
  2
UCS
  5
7
100
AcDbSymbolTable
 70
     0
  0
ENDTAB
  0
TABLE
  2
APPID
  5
9
100
AcDbSymbolTable
 70
     1
  0
APPID
  5
10
100
AcDbSymbolTableRecord
100
AcDbRegAppTableRecord
  2
ACAD
 70
     0
  0
ENDTAB
  0
TABLE
  2
DIMSTYLE
  5
A
100
AcDbSymbolTable
 70
     1
  0
DIMSTYLE
105
1326
100
AcDbSymbolTableRecord
100
AcDbDimStyleTableRecord
  2
STANDARD
 70
     0
  3

  4

  5

  6

  7

 40
1.0
 41
0.18
 42
0.0625
 43
0.38
 44
0.18
 45
0.0
 46
0.0
 47
0.0
 48
0.0
140
0.18
141
0.09
142
0.0
143
25.4
144
1.0
145
0.0
146
1.0
147
0.09
 71
     0
 72
     0
 73
     1
 74
     1
 75
     0
 76
     0
 77
     0
 78
     0
170
     0
171
     2
172
     0
173
     0
174
     0
175
     0
176
     0
177
     0
178
     0
270
     2
271
     4
272
     4
273
     2
274
     2
340
F
275
     0
280
     0
281
     0
282
     0
283
     1
284
     0
285
     0
286
     0
287
     3
288
     0
  0
ENDTAB
  0
TABLE
  2
BLOCK_RECORD
  5
1
100
AcDbSymbolTable
 70
     3
  0
BLOCK_RECORD
  5
17
100
AcDbSymbolTableRecord
100
AcDbBlockTableRecord
  2
*MODEL_SPACE
  0
BLOCK_RECORD
  5
14
100
AcDbSymbolTableRecord
100
AcDbBlockTableRecord
  2
*PAPER_SPACE
  0
BLOCK_RECORD
  5
1F15
100
AcDbSymbolTableRecord
100
AcDbBlockTableRecord
  2
*X0
  0
BLOCK_RECORD
  5
1F2A
100
AcDbSymbolTableRecord
100
AcDbBlockTableRecord
  2
*X1
  0
BLOCK_RECORD
  5
26E6
100
AcDbSymbolTableRecord
100
AcDbBlockTableRecord
  2
A$C2A927E97
  0
ENDTAB
  0
ENDSEC
  0
SECTION
  2
BLOCKS
  0
BLOCK
  5
36
100
AcDbEntity
  8
0
100
AcDbBlockBegin
  2
*MODEL_SPACE
 70
     0
 10
0.0
 20
0.0
 30
0.0
  3
*MODEL_SPACE
  1

  0
ENDBLK
  5
37
100
AcDbEntity
  8
0
100
AcDbBlockEnd
  0
BLOCK
  5
34
100
AcDbEntity
 67
     1
  8
0
100
AcDbBlockBegin
  2
*PAPER_SPACE
 70
     0
 10
0.0
 20
0.0
 30
0.0
  3
*PAPER_SPACE
  1

  0
ENDBLK
  5
35
100
AcDbEntity
 67
     1
  8
0
100
AcDbBlockEnd
  0
BLOCK
  5
1F28
100
AcDbEntity
  8
0
100
AcDbBlockBegin
  2
*X0
 70
     1
 10
0.0
 20
0.0
 30
0.0
  3
*X0
  1

  0
LINE
  5
1F16
100
AcDbEntity
  8
0
 62
     0
100
AcDbLine
 10
334.677131
 20
142.69764
 30
0.0
 11
334.927131
 21
142.94764
 31
0.0
  0
LINE
  5
1F17
100
AcDbEntity
  8
0
 62
     0
100
AcDbLine
 10
334.146801
 20
142.69764
 30
0.0
 11
334.396801
 21
142.94764
 31
0.0
  0
LINE
  5
1F18
100
AcDbEntity
  8
0
 62
     0
100
AcDbLine
 10
333.616471
 20
142.69764
 30
0.0
 11
333.866471
 21
142.94764
 31
0.0
  0
LINE
  5
1F19
100
AcDbEntity
  8
0
 62
     0
100
AcDbLine
 10
333.086141
 20
142.69764
 30
0.0
 11
333.336141
 21
142.94764
 31
0.0
  0
LINE
  5
1F1A
100
AcDbEntity
  8
0
 62
     0
100
AcDbLine
 10
332.555811
 20
142.69764
 30
0.0
 11
332.805811
 21
142.94764
 31
0.0
  0
LINE
  5
1F1B
100
AcDbEntity
  8
0
 62
     0
100
AcDbLine
 10
335.207461
 20
142.69764
 30
0.0
 11
335.457461
 21
142.94764
 31
0.0
  0
LINE
  5
1F1C
100
AcDbEntity
  8
0
 62
     0
100
AcDbLine
 10
335.737791
 20
142.69764
 30
0.0
 11
335.987791
 21
142.94764
 31
0.0
  0
LINE
  5
1F1D
100
AcDbEntity
  8
0
 62
     0
100
AcDbLine
 10
336.268121
 20
142.69764
 30
0.0
 11
336.518121
 21
142.94764
 31
0.0
  0
LINE
  5
1F1E
100
AcDbEntity
  8
0
 62
     0
100
AcDbLine
 10
336.798451
 20
142.69764
 30
0.0
 11
337.048451
 21
142.94764
 31
0.0
  0
LINE
  5
1F1F
100
AcDbEntity
  8
0
 62
     0
100
AcDbLine
 10
334.323578
 20
142.69764
 30
0.0
 11
334.573578
 21
142.94764
 31
0.0
  0
LINE
  5
1F20
100
AcDbEntity
  8
0
 62
     0
100
AcDbLine
 10
333.793248
 20
142.69764
 30
0.0
 11
334.043248
 21
142.94764
 31
0.0
  0
LINE
  5
1F21
100
AcDbEntity
  8
0
 62
     0
100
AcDbLine
 10
333.262918
 20
142.69764
 30
0.0
 11
333.512918
 21
142.94764
 31
0.0
  0
LINE
  5
1F22
100
AcDbEntity
  8
0
 62
     0
100
AcDbLine
 10
332.732587
 20
142.69764
 30
0.0
 11
332.982587
 21
142.94764
 31
0.0
  0
LINE
  5
1F23
100
AcDbEntity
  8
0
 62
     0
100
AcDbLine
 10
334.853908
 20
142.69764
 30
0.0
 11
335.103908
 21
142.94764
 31
0.0
  0
LINE
  5
1F24
100
AcDbEntity
  8
0
 62
     0
100
AcDbLine
 10
335.384238
 20
142.69764
 30
0.0
 11
335.634238
 21
142.94764
 31
0.0
  0
LINE
  5
1F25
100
AcDbEntity
  8
0
 62
     0
100
AcDbLine
 10
335.914568
 20
142.69764
 30
0.0
 11
336.164568
 21
142.94764
 31
0.0
  0
LINE
  5
1F26
100
AcDbEntity
  8
0
 62
     0
100
AcDbLine
 10
336.444898
 20
142.69764
 30
0.0
 11
336.694898
 21
142.94764
 31
0.0
  0
LINE
  5
1F27
100
AcDbEntity
  8
0
 62
     0
100
AcDbLine
 10
336.975228
 20
142.69764
 30
0.0
 11
337.137413
 21
142.859825
 31
0.0
  0
ENDBLK
  5
1F29
100
AcDbEntity
  8
0
100
AcDbBlockEnd
  0
BLOCK
  5
1F42
100
AcDbEntity
  8
0
100
AcDbBlockBegin
  2
*X1
 70
     1
 10
0.0
 20
0.0
 30
0.0
  3
*X1
  1

  0
LINE
  5
1F2B
100
AcDbEntity
  8
0
 62
     0
100
AcDbLine
 10
333.582818
 20
141.780103
 30
0.0
 11
333.649623
 21
141.846909
 31
0.0
  0
LINE
  5
1F2C
100
AcDbEntity
  8
0
 62
     0
100
AcDbLine
 10
333.406041
 20
141.780103
 30
0.0
 11
333.579741
 21
141.953803
 31
0.0
  0
LINE
  5
1F2D
100
AcDbEntity
  8
0
 62
     0
100
AcDbLine
 10
333.264623
 20
141.815462
 30
0.0
 11
333.402964
 21
141.953803
 31
0.0
  0
LINE
  5
1F2E
100
AcDbEntity
  8
0
 62
     0
100
AcDbLine
 10
333.538787
 20
142.266403
 30
0.0
 11
333.649623
 21
142.377239
 31
0.0
  0
LINE
  5
1F2F
100
AcDbEntity
  8
0
 62
     0
100
AcDbLine
 10
333.362011
 20
142.266403
 30
0.0
 11
333.535711
 21
142.440103
 31
0.0
  0
LINE
  5
1F30
100
AcDbEntity
  8
0
 62
     0
100
AcDbLine
 10
333.264623
 20
142.345792
 30
0.0
 11
333.358934
 21
142.440103
 31
0.0
  0
LINE
  5
1F31
100
AcDbEntity
  8
0
 62
     0
100
AcDbLine
 10
335.74234
 20
142.348635
 30
0.0
 11
335.833808
 21
142.440103
 31
0.0
  0
LINE
  5
1F32
100
AcDbEntity
  8
0
 62
     0
100
AcDbLine
 10
335.836884
 20
142.266403
 30
0.0
 11
336.010584
 21
142.440103
 31
0.0
  0
LINE
  5
1F33
100
AcDbEntity
  8
0
 62
     0
100
AcDbLine
 10
336.013661
 20
142.266403
 30
0.0
 11
336.019411
 21
142.272153
 31
0.0
  0
LINE
  5
1F34
100
AcDbEntity
  8
0
 62
     0
100
AcDbLine
 10
335.74234
 20
141.818305
 30
0.0
 11
335.877838
 21
141.953803
 31
0.0
  0
LINE
  5
1F35
100
AcDbEntity
  8
0
 62
     0
100
AcDbLine
 10
335.880915
 20
141.780103
 30
0.0
 11
336.019411
 21
141.9186
 31
0.0
  0
LINE
  5
1F36
100
AcDbEntity
  8
0
 62
     0
100
AcDbLine
 10
336.057691
 20
141.780103
 30
0.0
 11
336.107691
 21
141.830103
 31
0.0
  0
LINE
  5
1F37
100
AcDbEntity
  8
0
 62
     0
100
AcDbLine
 10
333.649623
 20
142.410017
 30
0.0
 11
333.619537
 21
142.440103
 31
0.0
  0
LINE
  5
1F38
100
AcDbEntity
  8
0
 62
     0
100
AcDbLine
 10
333.616461
 20
142.266403
 30
0.0
 11
333.53343
 21
142.349434
 31
0.0
  0
LINE
  5
1F39
100
AcDbEntity
  8
0
 62
     0
100
AcDbLine
 10
333.439684
 20
142.266403
 30
0.0
 11
333.268265
 21
142.437822
 31
0.0
  0
LINE
  5
1F3A
100
AcDbEntity
  8
0
 62
     0
100
AcDbLine
 10
333.577624
 20
141.951686
 30
0.0
 11
333.575507
 21
141.953803
 31
0.0
  0
LINE
  5
1F3B
100
AcDbEntity
  8
0
 62
     0
100
AcDbLine
 10
333.572431
 20
141.780103
 30
0.0
 11
333.445042
 21
141.907492
 31
0.0
  0
LINE
  5
1F3C
100
AcDbEntity
  8
0
 62
     0
100
AcDbLine
 10
333.395654
 20
141.780103
 30
0.0
 11
333.264623
 21
141.911134
 31
0.0
  0
LINE
  5
1F3D
100
AcDbEntity
  8
0
 62
     0
100
AcDbLine
 10
335.870528
 20
141.780103
 30
0.0
 11
335.831527
 21
141.819104
 31
0.0
  0
LINE
  5
1F3E
100
AcDbEntity
  8
0
 62
     0
100
AcDbLine
 10
335.964109
 20
141.863298
 30
0.0
 11
335.873604
 21
141.953803
 31
0.0
  0
LINE
  5
1F3F
100
AcDbEntity
  8
0
 62
     0
100
AcDbLine
 10
335.787333
 20
142.393628
 30
0.0
 11
335.74234
 21
142.438621
 31
0.0
  0
LINE
  5
1F40
100
AcDbEntity
  8
0
 62
     0
100
AcDbLine
 10
336.019411
 20
142.338326
 30
0.0
 11
335.917634
 21
142.440103
 31
0.0
  0
LINE
  5
1F41
100
AcDbEntity
  8
0
 62
     0
100
AcDbLine
 10
336.12734
 20
142.407174
 30
0.0
 11
336.096692
 21
142.437822
 31
0.0
  0
ENDBLK
  5
1F43
100
AcDbEntity
  8
0
100
AcDbBlockEnd
  0
BLOCK
  5
27AA
100
AcDbEntity
  8
0
100
AcDbBlockBegin
  2
A$C2A927E97
 70
     0
 10
0.0
 20
0.0
 30
0.0
  3
A$C2A927E97
  1

  0
ARC
  5
26E7
100
AcDbEntity
  8
OBJECT
100
AcDbCircle
 10
28.914117
 20
31.575869
 30
0.0
 40
32.393105
100
AcDbArc
 50
228.572778
 51
257.102592
  0
LINE
  5
26E8
100
AcDbEntity
  8
OBJECT
100
AcDbLine
 10
7.725924
 20
7.429243
 30
0.0
 11
3.548594
 21
5.017461
 31
0.0
  0
ARC
  5
26E9
100
AcDbEntity
  8
OBJECT
100
AcDbCircle
 10
3.532094
 20
6.956469
 30
0.0
 40
1.939078
100
AcDbArc
 50
149.512439
 51
270.487561
  0
LINE
  5
26EA
100
AcDbEntity
  8
OBJECT
100
AcDbLine
 10
22.058781
 20
19.269065
 30
0.0
 11
22.058781
 21
0.216506
 31
0.0
  0
LINE
  5
26EB
100
AcDbEntity
  8
OBJECT
100
AcDbLine
 10
21.683781
 20
19.052559
 30
0.0
 11
21.683781
 21
0.0
 31
0.0
  0
ELLIPSE
  5
26EC
100
AcDbEntity
  8
OBJECT
100
AcDbEllipse
 10
13.715031
 20
5.170158
 30
0.0
 11
0.3964828831377434
 21
-0.6867284979259484
 31
0.0
210
0.0
220
0.0
230
1.0
 40
0.57735
 41
3.504165664780749
 42
5.920612295988677
  0
ELLIPSE
  5
26ED
100
AcDbEntity
  8
OBJECT
100
AcDbEllipse
 10
13.433781
 20
5.007778
 30
0.0
 11
0.3964828831377434
 21
-0.6867284979259484
 31
0.0
210
0.0
220
0.0
230
1.0
 40
0.57735
 41
0.0
 42
6.283185307179586
  0
ELLIPSE
  5
26EE
100
AcDbEntity
  8
OBJECT
100
AcDbEllipse
 10
20.183781
 20
1.928741
 30
0.0
 11
0.3964828831377434
 21
-0.6867284979259484
 31
0.0
210
0.0
220
0.0
230
1.0
 40
0.57735
 41
0.0
 42
6.283185307179586
  0
LINE
  5
26EF
100
AcDbEntity
  8
OBJECT
100
AcDbLine
 10
21.683781
 20
0.0
 30
0.0
 11
22.058781
 21
0.216506
 31
0.0
  0
ELLIPSE
  5
26F0
100
AcDbEntity
  8
OBJECT
100
AcDbEllipse
 10
20.465031
 20
2.09112
 30
0.0
 11
0.3964828831377434
 21
-0.6867284979259484
 31
0.0
210
0.0
220
0.0
230
1.0
 40
0.57735
 41
3.504165664780749
 42
5.920612295988677
  0
ARC
  5
26F1
100
AcDbEntity
  8
OBJECT
100
AcDbCircle
 10
29.283384
 20
50.835004
 30
0.0
 40
32.382145
100
AcDbArc
 50
222.891442
 51
257.108558
  0
ARC
  5
26F2
100
AcDbEntity
  8
OBJECT
100
AcDbCircle
 10
28.914117
 20
50.628427
 30
0.0
 40
32.393105
100
AcDbArc
 50
222.897408
 51
257.102592
  0
LINE
  5
26F3
100
AcDbEntity
  8
OBJECT
100
AcDbLine
 10
5.183781
 20
28.578838
 30
0.0
 11
5.183781
 21
14.161959
 31
0.0
  0
ELLIPSE
  5
26F4
100
AcDbEntity
  8
OBJECT
100
AcDbEllipse
 10
6.683781
 20
25.980762
 30
0.0
 11
0.3964828831377434
 21
-0.6867284979259484
 31
0.0
210
0.0
220
0.0
230
1.0
 40
0.57735
 41
0.0
 42
6.283185307179586
  0
ELLIPSE
  5
26F5
100
AcDbEntity
  8
OBJECT
100
AcDbEllipse
 10
21.403278
 20
18.890611
 30
0.0
 11
2.755675960631098
 21
-4.772970773009181
 31
0.0
210
0.0
220
0.0
230
0.9999999999999998
 40
0.57735
 41
6.200659763797375
 42
9.560437098626678
  0
ELLIPSE
  5
26F6
100
AcDbEntity
  8
OBJECT
100
AcDbEllipse
 10
10.433781
 20
12.557368
 30
0.0
 11
2.755675960631088
 21
-4.772970773009188
 31
0.0
210
0.0
220
0.0
230
0.9999999999999998
 40
0.57735
 41
5.369860747735749
 42
10.17397235008806
  0
ELLIPSE
  5
26F7
100
AcDbEntity
  8
OBJECT
100
AcDbEllipse
 10
13.433781
 20
14.289419
 30
0.0
 11
2.755675960631098
 21
-4.772970773009181
 31
0.0
210
0.0
220
0.0
230
0.9999999999999998
 40
0.57735
 41
6.119541928070701
 42
9.42485850823045
  0
SPLINE
  5
26F8
100
AcDbEntity
  8
OBJECT
100
AcDbSpline
210
0.0
220
0.0
230
1.0
 70
     8
 71
     3
 72
    37
 73
    33
 74
     0
 42
0.0000001
 43
0.0000001
 40
5.394463828610478
 40
5.394463828610478
 40
5.394463828610478
 40
5.394463828610478
 40
5.535181358361182
 40
5.535181358361182
 40
5.904193448918594
 40
5.904193448918594
 40
6.273205539476006
 40
6.273205539476006
 40
6.283185307179586
 40
6.283185307179586
 40
6.283185307179586
 40
6.652197397736998
 40
6.652197397736998
 40
7.02120948829441
 40
7.02120948829441
 40
7.390221578851822
 40
7.390221578851822
 40
7.759233669409234
 40
7.759233669409234
 40
8.128245759966647
 40
8.128245759966647
 40
8.497257850524059
 40
8.497257850524059
 40
8.866269941081471
 40
8.866269941081471
 40
9.235282031638885
 40
9.235282031638885
 40
9.604294122196296
 40
9.604294122196296
 40
9.973306212753708
 40
9.973306212753708
 40
10.13763522505432
 40
10.13763522505432
 40
10.13763522505432
 40
10.13763522505432
 10
10.17485220894332
 20
8.518747222829063
 30
0.0
 10
10.34910327394391
 20
8.397213666889598
 30
0.0
 10
10.52389955486205
 20
8.289513045644952
 30
0.0
 10
11.15188786867202
 20
7.954072452274743
 30
0.0
 10
11.59575429559981
 20
7.815704640814857
 30
0.0
 10
12.39302551229127
 20
7.751598265118161
 30
0.0
 10
12.74482537182689
 20
7.823387677323864
 30
0.0
 10
13.04857834309257
 20
7.991827802340822
 30
0.0
 10
13.05653739110084
 20
7.996331700390442
 30
0.0
 10
13.06445692212241
 20
8.000904043757572
 30
0.0
 10
13.35728965984651
 20
8.169971103710111
 30
0.0
 10
13.59833704539551
 20
8.433512822134133
 30
0.0
 10
13.94879954786438
 20
9.146230148667967
 30
0.0
 10
14.05521754246069
 20
9.595431927898772
 30
0.0
 10
14.09826994272589
 20
10.61915611825557
 30
0.0
 10
14.034977681692
 20
11.19253114535632
 30
0.0
 10
13.74174420573126
 20
12.37800099683801
 30
0.0
 10
13.51207375234446
 20
12.98967691889376
 30
0.0
 10
12.9174702701589
 20
14.16376061643939
 30
0.0
 10
12.55274548954003
 20
14.72581414923505
 30
0.0
 10
11.74016736348892
 20
15.72119176479995
 30
0.0
 10
11.29251564146034
 20
16.15413892066598
 30
0.0
 10
10.38096352269667
 20
16.83103243844462
 30
0.0
 10
9.917443544865705
 20
17.07440219116637
 30
0.0
 10
9.048433905524575
 20
17.34446421133833
 30
0.0
 10
8.644898776440868
 20
17.37129911129454
 30
0.0
 10
7.948846687285708
 20
17.22812403393254
 30
0.0
 10
7.6536507566218
 20
17.06099534478747
 30
0.0
 10
7.175390320807991
 20
16.5400028857164
 30
0.0
 10
6.993211728300025
 20
16.18224208124999
 30
0.0
 10
6.842165704375588
 20
15.54694770794222
 30
0.0
 10
6.811268415102176
 20
15.33530583802934
 30
0.0
 10
6.796665447504778
 20
15.11113462655709
 30
0.0
  0
LINE
  5
26F9
100
AcDbEntity
  8
OBJECT
100
AcDbLine
 10
10.416366
 20
16.77671
 30
0.0
 11
8.407877
 21
15.617108
 31
0.0
  0
LINE
  5
26FA
100
AcDbEntity
  8
OBJECT
100
AcDbLine
 10
9.531762
 20
15.088163
 30
0.0
 11
8.266145
 21
15.683812
 31
0.0
  0
ARC
  5
26FB
100
AcDbEntity
  8
OBJECT
100
AcDbCircle
 10
8.201248
 20
15.545921
 30
0.0
 40
0.1524
100
AcDbArc
 50
64.796446
 51
124.796446
  0
LINE
  5
26FC
100
AcDbEntity
  8
OBJECT
100
AcDbLine
 10
15.703704
 20
9.32102
 30
0.0
 11
13.229244
 21
7.808042
 31
0.0
  0
LINE
  5
26FD
100
AcDbEntity
  8
OBJECT
100
AcDbLine
 10
4.340692
 20
13.268918
 30
0.0
 11
0.173633
 21
10.863065
 31
0.0
  0
ARC
  5
26FE
100
AcDbEntity
  8
OBJECT
100
AcDbCircle
 10
-0.038748
 20
8.636497
 30
0.0
 40
2.065751
100
AcDbArc
 50
354.234369
 51
82.564193
  0
LINE
  5
26FF
100
AcDbEntity
  8
OBJECT
100
AcDbLine
 10
6.644343
 20
10.414468
 30
0.0
 11
4.844343
 21
11.453698
 31
0.0
  0
LINE
  5
2700
100
AcDbEntity
  8
OBJECT
100
AcDbLine
 10
4.506843
 20
11.258843
 30
0.0
 11
4.506843
 21
10.673583
 31
0.0
  0
LWPOLYLINE
  5
2701
100
AcDbEntity
  8
OBJECT
100
AcDbPolyline
 90
        2
 70
     0
 43
0.0
 10
11.416099
 20
9.235382
 42
0.161788
 10
11.565685
 20
12.179787
 42
0.088909
  0
LINE
  5
2702
100
AcDbEntity
  8
OBJECT
100
AcDbLine
 10
14.026823
 20
11.067069
 30
0.0
 11
11.552375
 21
9.638446
 31
0.0
  0
LINE
  5
2703
100
AcDbEntity
  8
OBJECT
100
AcDbLine
 10
7.232726
 20
10.624267
 30
0.0
 11
5.207726
 21
11.793401
 31
0.0
  0
LWPOLYLINE
  5
2704
100
AcDbEntity
  8
OBJECT
100
AcDbPolyline
 90
       15
 70
     0
 43
0.0
 10
5.451416
 20
10.219861
 42
0.043749
 10
5.519343
 20
10.17228
 42
0.106617
 10
5.641046
 20
10.133139
 42
0.156851
 10
5.727103
 20
10.1517
 42
0.156851
 10
5.786205
 20
10.216946
 42
0.106617
 10
5.813159
 20
10.341915
 42
0.072341
 10
5.793487
 20
10.477173
 42
0.058752
 10
5.727103
 20
10.631499
 42
0.058752
 10
5.626645
 20
10.766152
 42
0.072341
 10
5.519343
 20
10.850819
 42
0.106617
 10
5.397641
 20
10.88996
 42
0.156851
 10
5.311584
 20
10.871399
 42
0.156851
 10
5.252481
 20
10.806152
 42
0.106617
 10
5.225528
 20
10.681184
 42
0.027982
 10
5.228497
 20
10.628162
 42
0.058752
  0
LWPOLYLINE
  5
2705
100
AcDbEntity
  8
OBJECT
100
AcDbPolyline
 90
       16
 70
     1
 43
0.0
 10
9.600358
 20
10.916975
 42
0.058752
 10
9.67612
 20
10.815424
 42
0.072341
 10
9.757043
 20
10.751571
 42
0.106617
 10
9.848827
 20
10.722052
 42
0.156851
 10
9.913728
 20
10.73605
 42
0.156851
 10
9.958301
 20
10.785257
 42
0.106617
 10
9.978629
 20
10.879504
 42
0.072341
 10
9.963792
 20
10.981511
 42
0.058752
 10
9.913728
 20
11.097899
 42
0.058752
 10
9.837966
 20
11.19945
 42
0.072341
 10
9.757043
 20
11.263302
 42
0.106617
 10
9.665259
 20
11.292821
 42
0.156851
 10
9.600358
 20
11.278823
 42
0.156851
 10
9.555785
 20
11.229616
 42
0.106617
 10
9.535457
 20
11.135369
 42
0.072341
 10
9.550293
 20
11.033362
 42
0.058752
  0
LWPOLYLINE
  5
2706
100
AcDbEntity
  8
OBJECT
100
AcDbPolyline
 90
       11
 70
     0
 43
0.0
 10
10.12832
 20
10.859789
 42
0.038767
 10
10.108544
 20
10.951957
 42
0.058752
 10
10.023427
 20
11.14983
 42
0.058752
 10
9.894622
 20
11.322479
 42
0.072341
 10
9.757043
 20
11.431037
 42
0.106617
 10
9.600998
 20
11.481223
 42
0.156851
 10
9.490658
 20
11.457424
 42
0.156851
 10
9.414878
 20
11.373766
 42
0.106617
 10
9.380318
 20
11.213535
 42
0.072341
 10
9.405542
 20
11.040109
 42
0.058752
 10
9.490658
 20
10.842236
 42
0.058752
  0
ARC
  5
2707
100
AcDbEntity
  8
OBJECT
100
AcDbCircle
 10
-0.014519
 20
8.805901
 30
0.0
 40
2.065751
100
AcDbArc
 50
335.225843
 51
84.774157
  0
LINE
  5
2708
100
AcDbEntity
  8
OBJECT
100
AcDbLine
 10
5.260623
 20
10.108484
 30
0.0
 11
6.419343
 21
9.439496
 31
0.0
  0
ARC
  5
2709
100
AcDbEntity
  8
OBJECT
100
AcDbCircle
 10
2.100175
 20
10.02682
 30
0.0
 40
2.100207
100
AcDbArc
 50
156.536008
 51
263.463992
  0
ARC
  5
270A
100
AcDbEntity
  8
OBJECT
100
AcDbCircle
 10
2.245548
 20
10.099421
 30
0.0
 40
2.100207
100
AcDbArc
 50
163.813753
 51
260.506752
  0
LINE
  5
270B
100
AcDbEntity
  8
OBJECT
100
AcDbLine
 10
0.765861
 20
10.539109
 30
0.0
 11
0.889898
 21
10.663145
 31
0.0
  0
LINE
  5
270C
100
AcDbEntity
  8
OBJECT
100
AcDbLine
 10
0.052397
 20
9.560479
 30
0.0
 11
0.18502
 21
9.693103
 31
0.0
  0
LINE
  5
270D
100
AcDbEntity
  8
OBJECT
100
AcDbLine
 10
0.619888
 20
8.53698
 30
0.0
 11
0.729204
 21
8.646296
 31
0.0
  0
LINE
  5
270E
100
AcDbEntity
  8
OBJECT
100
AcDbLine
 10
0.758829
 20
8.410756
 30
0.0
 11
0.864887
 21
8.516814
 31
0.0
  0
LINE
  5
270F
100
AcDbEntity
  8
OBJECT
100
AcDbLine
 10
0.377722
 20
8.825144
 30
0.0
 11
0.493658
 21
8.941081
 31
0.0
  0
LINE
  5
2710
100
AcDbEntity
  8
OBJECT
100
AcDbLine
 10
0.27507
 20
8.987657
 30
0.0
 11
0.394541
 21
9.107129
 31
0.0
  0
LINE
  5
2711
100
AcDbEntity
  8
OBJECT
100
AcDbLine
 10
0.185655
 20
9.163407
 30
0.0
 11
0.30896
 21
9.286712
 31
0.0
  0
LINE
  5
2712
100
AcDbEntity
  8
OBJECT
100
AcDbLine
 10
0.110764
 20
9.353682
 30
0.0
 11
0.238367
 21
9.481284
 31
0.0
  0
LINE
  5
2713
100
AcDbEntity
  8
OBJECT
100
AcDbLine
 10
0.492808
 20
8.675065
 30
0.0
 11
0.60539
 21
8.787647
 31
0.0
  0
LINE
  5
2714
100
AcDbEntity
  8
OBJECT
100
AcDbLine
 10
0.35985
 20
10.663428
 30
0.0
 11
0.502363
 21
10.805941
 31
0.0
  0
LINE
  5
2715
100
AcDbEntity
  8
OBJECT
100
AcDbLine
 10
0.100698
 20
10.66944
 30
0.0
 11
0.281578
 21
10.850321
 31
0.0
  0
LINE
  5
2716
100
AcDbEntity
  8
OBJECT
100
AcDbLine
 10
0.01371
 20
9.786957
 30
0.0
 11
0.152531
 21
9.925779
 31
0.0
  0
LINE
  5
2717
100
AcDbEntity
  8
OBJECT
100
AcDbLine
 10
0.0
 20
10.038412
 30
0.0
 11
0.147106
 21
10.185519
 31
0.0
  0
LINE
  5
2718
100
AcDbEntity
  8
OBJECT
100
AcDbLine
 10
0.021213
 20
10.32479
 30
0.0
 11
0.18095
 21
10.484528
 31
0.0
  0
LINE
  5
2719
100
AcDbEntity
  8
OBJECT
100
AcDbLine
 10
0.571608
 20
10.61002
 30
0.0
 11
0.704184
 21
10.742597
 31
0.0
  0
LINE
  5
271A
100
AcDbEntity
  8
OBJECT
100
AcDbLine
 10
0.909785
 20
8.296547
 30
0.0
 11
1.012513
 21
8.399275
 31
0.0
  0
LINE
  5
271B
100
AcDbEntity
  8
OBJECT
100
AcDbLine
 10
4.383562
 20
10.134926
 30
0.0
 11
5.562147
 21
10.822933
 31
0.0
  0
LINE
  5
271C
100
AcDbEntity
  8
OBJECT
100
AcDbLine
 10
4.617989
 20
9.733343
 30
0.0
 11
5.805549
 21
10.426588
 31
0.0
  0
LINE
  5
271D
100
AcDbEntity
  8
OBJECT
100
AcDbLine
 10
5.059578
 20
10.529555
 30
0.0
 11
5.294005
 21
10.127972
 31
0.0
  0
LINE
  5
271E
100
AcDbEntity
  8
OBJECT
100
AcDbLine
 10
1.531422
 20
9.978844
 30
0.0
 11
1.620731
 21
10.068154
 31
0.0
  0
LINE
  5
271F
100
AcDbEntity
  8
OBJECT
100
AcDbLine
 10
1.07322
 20
8.194817
 30
0.0
 11
1.172458
 21
8.294055
 31
0.0
  0
LINE
  5
2720
100
AcDbEntity
  8
OBJECT
100
AcDbLine
 10
1.441355
 20
8.032622
 30
0.0
 11
1.532645
 21
8.123911
 31
0.0
  0
LINE
  5
2721
100
AcDbEntity
  8
OBJECT
100
AcDbLine
 10
1.249967
 20
8.106399
 30
0.0
 11
1.345443
 21
8.201875
 31
0.0
  0
LINE
  5
2722
100
AcDbEntity
  8
OBJECT
100
AcDbLine
 10
1.11028
 20
10.353198
 30
0.0
 11
1.219582
 21
10.4625
 31
0.0
  0
LINE
  5
2723
100
AcDbEntity
  8
OBJECT
100
AcDbLine
 10
0.944926
 20
10.453008
 30
0.0
 11
1.061313
 21
10.569395
 31
0.0
  0
LINE
  5
2724
100
AcDbEntity
  8
OBJECT
100
AcDbLine
 10
1.403168
 20
10.115755
 30
0.0
 11
1.499108
 21
10.211695
 31
0.0
  0
LINE
  5
2725
100
AcDbEntity
  8
OBJECT
100
AcDbLine
 10
1.262853
 20
10.240605
 30
0.0
 11
1.365401
 21
10.343154
 31
0.0
  0
LINE
  5
2726
100
AcDbEntity
  8
OBJECT
100
AcDbLine
 10
4.603183
 20
9.823708
 30
0.0
 11
4.318189
 21
9.657341
 31
0.0
  0
LINE
  5
2727
100
AcDbEntity
  8
OBJECT
100
AcDbLine
 10
4.603183
 20
9.823708
 30
0.0
 11
4.650456
 21
9.535186
 31
0.0
  0
LINE
  5
2728
100
AcDbEntity
  8
OBJECT
100
AcDbLine
 10
4.169976
 20
9.911235
 30
0.0
 11
4.318189
 21
9.657341
 31
0.0
  0
LWPOLYLINE
  5
2729
100
AcDbEntity
  8
OBJECT
100
AcDbPolyline
 90
       16
 70
     1
 43
0.0
 10
4.002321
 20
9.990894
 42
0.302862
 10
3.995077
 20
9.97606
 42
0.055988
 10
4.015042
 20
9.896471
 42
0.024868
 10
4.050298
 20
9.814764
 42
0.017828
 10
4.108999
 20
9.705432
 42
0.017828
 10
4.17534
 20
9.60056
 42
0.024868
 10
4.229154
 20
9.529687
 42
0.055988
 10
4.288642
 20
9.47317
 42
0.302862
 10
4.305122
 20
9.472184
 42
0.302862
 10
4.312365
 20
9.487018
 42
0.055988
 10
4.292401
 20
9.566607
 42
0.024868
 10
4.257145
 20
9.648314
 42
0.017828
 10
4.198443
 20
9.757646
 42
0.017828
 10
4.132102
 20
9.862517
 42
0.024868
 10
4.078288
 20
9.933391
 42
0.055988
 10
4.0188
 20
9.989908
 42
0.302862
  0
LINE
  5
272A
100
AcDbEntity
  8
OBJECT
100
AcDbLine
 10
1.75099
 20
9.668082
 30
0.0
 11
1.826268
 21
9.74336
 31
0.0
  0
LINE
  5
272B
100
AcDbEntity
  8
OBJECT
100
AcDbLine
 10
1.841074
 20
9.493001
 30
0.0
 11
1.908503
 21
9.56043
 31
0.0
  0
LINE
  5
272C
100
AcDbEntity
  8
OBJECT
100
AcDbLine
 10
1.916454
 20
9.303216
 30
0.0
 11
1.975031
 21
9.361793
 31
0.0
  0
LINE
  5
272D
100
AcDbEntity
  8
OBJECT
100
AcDbLine
 10
1.975092
 20
9.096689
 30
0.0
 11
2.023237
 21
9.144834
 31
0.0
  0
LINE
  5
272E
100
AcDbEntity
  8
OBJECT
100
AcDbLine
 10
2.013743
 20
8.870175
 30
0.0
 11
2.04884
 21
8.905272
 31
0.0
  0
LINE
  5
272F
100
AcDbEntity
  8
OBJECT
100
AcDbLine
 10
2.026922
 20
8.618189
 30
0.0
 11
2.044188
 21
8.635455
 31
0.0
  0
LINE
  5
2730
100
AcDbEntity
  8
OBJECT
100
AcDbLine
 10
1.649447
 20
7.975549
 30
0.0
 11
1.73589
 21
8.061992
 31
0.0
  0
LINE
  5
2731
100
AcDbEntity
  8
OBJECT
100
AcDbLine
 10
4.650456
 20
9.535186
 30
0.0
 11
4.365461
 21
9.368819
 31
0.0
  0
LINE
  5
2732
100
AcDbEntity
  8
OBJECT
100
AcDbLine
 10
4.318189
 20
9.657341
 30
0.0
 11
4.365461
 21
9.368819
 31
0.0
  0
LINE
  5
2733
100
AcDbEntity
  8
OBJECT
100
AcDbLine
 10
4.365461
 20
9.368819
 30
0.0
 11
4.230056
 21
9.528618
 31
0.0
  0
LINE
  5
2734
100
AcDbEntity
  8
OBJECT
100
AcDbLine
 10
1.647504
 20
9.829762
 30
0.0
 11
1.729992
 21
9.912249
 31
0.0
  0
ARC
  5
2735
100
AcDbEntity
  8
OBJECT
100
AcDbCircle
 10
4.731843
 20
10.673583
 30
0.0
 40
0.225
100
AcDbArc
 50
180.0
 51
240.0
  0
LINE
  5
2736
100
AcDbEntity
  8
OBJECT
100
AcDbLine
 10
4.619343
 20
10.478727
 30
0.0
 11
4.7969
 21
10.376215
 31
0.0
  0
LINE
  5
2737
100
AcDbEntity
  8
OBJECT
100
AcDbLine
 10
4.226975
 20
10.260627
 30
0.0
 11
3.941981
 21
10.094259
 31
0.0
  0
LINE
  5
2738
100
AcDbEntity
  8
OBJECT
100
AcDbLine
 10
4.454971
 20
10.077603
 30
0.0
 11
4.169976
 21
9.911235
 31
0.0
  0
LINE
  5
2739
100
AcDbEntity
  8
OBJECT
100
AcDbLine
 10
4.454971
 20
10.077603
 30
0.0
 11
4.603183
 21
9.823708
 31
0.0
  0
LINE
  5
273A
100
AcDbEntity
  8
OBJECT
100
AcDbLine
 10
4.454971
 20
10.077603
 30
0.0
 11
4.226975
 21
10.260627
 31
0.0
  0
LINE
  5
273B
100
AcDbEntity
  8
OBJECT
100
AcDbLine
 10
4.169976
 20
9.911235
 30
0.0
 11
3.941981
 21
10.094259
 31
0.0
  0
LINE
  5
273C
100
AcDbEntity
  8
OBJECT
100
AcDbLine
 10
3.941981
 20
10.094259
 30
0.0
 11
4.014555
 21
9.897781
 31
0.0
  0
LINE
  5
273D
100
AcDbEntity
  8
OBJECT
100
AcDbLine
 10
4.670949
 20
10.30269
 30
0.0
 11
4.905376
 21
9.901107
 31
0.0
  0
LINE
  5
273E
100
AcDbEntity
  8
OBJECT
100
AcDbLine
 10
4.541406
 20
10.227068
 30
0.0
 11
4.775833
 21
9.825485
 31
0.0
  0
LINE
  5
273F
100
AcDbEntity
  8
OBJECT
100
AcDbLine
 10
4.930035
 20
10.453933
 30
0.0
 11
5.164462
 21
10.05235
 31
0.0
  0
LINE
  5
2740
100
AcDbEntity
  8
OBJECT
100
AcDbLine
 10
4.800492
 20
10.378312
 30
0.0
 11
5.034919
 21
9.976728
 31
0.0
  0
LINE
  5
2741
100
AcDbEntity
  8
OBJECT
100
AcDbLine
 10
5.448207
 20
10.756419
 30
0.0
 11
5.682634
 21
10.354836
 31
0.0
  0
LINE
  5
2742
100
AcDbEntity
  8
OBJECT
100
AcDbLine
 10
5.189121
 20
10.605176
 30
0.0
 11
5.423548
 21
10.203593
 31
0.0
  0
LINE
  5
2743
100
AcDbEntity
  8
OBJECT
100
AcDbLine
 10
5.318664
 20
10.680798
 30
0.0
 11
5.553091
 21
10.279215
 31
0.0
  0
LINE
  5
2744
100
AcDbEntity
  8
OBJECT
100
AcDbLine
 10
8.396821
 20
7.4922
 30
0.0
 11
11.416099
 21
9.235382
 31
0.0
  0
LINE
  5
2745
100
AcDbEntity
  8
OBJECT
100
AcDbLine
 10
10.155212
 20
10.749385
 30
0.0
 11
8.663334
 21
9.888049
 31
0.0
  0
LINE
  5
2746
100
AcDbEntity
  8
OBJECT
100
AcDbLine
 10
8.065995
 20
9.669105
 30
0.0
 11
10.136356
 21
10.864429
 31
0.0
  0
LWPOLYLINE
  5
2747
100
AcDbEntity
  8
OBJECT
100
AcDbPolyline
 90
        3
 70
     0
 43
0.0
 10
9.490658
 20
10.842236
 42
0.058752
 10
9.619463
 20
10.669586
 42
0.038767
 10
9.689395
 20
10.606375
 42
0.106617
  0
LINE
  5
2748
100
AcDbEntity
  8
OBJECT
100
AcDbLine
 10
7.725924
 20
7.429243
 30
0.0
 11
7.954613
 21
7.561277
 31
0.0
  0
LWPOLYLINE
  5
2749
100
AcDbEntity
  8
OBJECT
100
AcDbPolyline
 90
        2
 70
     0
 43
0.0
 10
8.396821
 20
7.4922
 42
0.13113
 10
8.663334
 20
9.888049
 42
0.088909
  0
LINE
  5
274A
100
AcDbEntity
  8
OBJECT
100
AcDbLine
 10
7.954613
 20
7.561277
 30
0.0
 11
6.322311
 21
6.618867
 31
0.0
  0
LINE
  5
274B
100
AcDbEntity
  8
OBJECT
100
AcDbLine
 10
7.910856
 20
7.418061
 30
0.0
 11
7.633184
 21
7.3757
 31
0.0
  0
ARC
  5
274C
100
AcDbEntity
  8
OBJECT
100
AcDbCircle
 10
8.068629
 20
7.944394
 30
0.0
 40
0.549471
100
AcDbArc
 50
253.313398
 51
307.50001
  0
LINE
  5
274D
100
AcDbEntity
  8
OBJECT
100
AcDbLine
 10
6.756843
 20
10.219612
 30
0.0
 11
6.756843
 21
9.634352
 31
0.0
  0
LINE
  5
274E
100
AcDbEntity
  8
OBJECT
100
AcDbLine
 10
6.644343
 20
9.439496
 30
0.0
 11
7.232726
 21
9.779199
 31
0.0
  0
ARC
  5
274F
100
AcDbEntity
  8
OBJECT
100
AcDbCircle
 10
6.531843
 20
9.634352
 30
0.0
 40
0.225
100
AcDbArc
 50
240.0
 51
0.0
  0
ARC
  5
2750
100
AcDbEntity
  8
OBJECT
100
AcDbCircle
 10
8.404426
 20
9.750901
 30
0.0
 40
0.348175
100
AcDbArc
 50
193.587352
 51
328.249975
  0
LWPOLYLINE
  5
2751
100
AcDbEntity
  8
OBJECT
100
AcDbPolyline
 90
        2
 70
     0
 43
0.0
 10
7.954613
 20
7.561277
 42
0.114354
 10
8.065995
 20
9.669105
 42
0.088909
  0
LINE
  5
2752
100
AcDbEntity
  8
OBJECT
100
AcDbLine
 10
6.726699
 20
10.332112
 30
0.0
 11
7.232726
 21
10.624267
 31
0.0
  0
ARC
  5
2753
100
AcDbEntity
  8
OBJECT
100
AcDbCircle
 10
6.531843
 20
10.219612
 30
0.0
 40
0.225
100
AcDbArc
 50
0.0
 51
60.0
  0
LINE
  5
2754
100
AcDbEntity
  8
OBJECT
100
AcDbLine
 10
7.232726
 20
10.624267
 30
0.0
 11
7.232726
 21
9.779199
 31
0.0
  0
LWPOLYLINE
  5
2755
100
AcDbEntity
  8
OBJECT
100
AcDbPolyline
 90
        2
 70
     0
 43
0.0
 10
9.888699
 20
8.353537
 42
0.137477
 10
10.136356
 20
10.864429
 42
0.088909
  0
LINE
  5
2756
100
AcDbEntity
  8
OBJECT
100
AcDbLine
 10
6.404778
 20
12.827259
 30
0.0
 11
5.131239
 21
13.426638
 31
0.0
  0
LINE
  5
2757
100
AcDbEntity
  8
OBJECT
100
AcDbLine
 10
6.34922
 20
14.834826
 30
0.0
 11
3.908426
 21
13.425632
 31
0.0
  0
LWPOLYLINE
  5
2758
100
AcDbEntity
  8
OBJECT
100
AcDbPolyline
 90
        5
 70
     0
 43
0.0
 10
9.412816
 20
12.658546
 42
0.064224
 10
8.624151
 20
13.55772
 42
0.088909
 10
7.474684
 20
14.254823
 42
0.104962
 10
6.186431
 20
14.460927
 42
0.154114
 10
4.82182
 20
13.952981
 42
0.12004
  0
LINE
  5
2759
100
AcDbEntity
  8
OBJECT
100
AcDbLine
 10
6.221727
 20
11.207967
 30
0.0
 11
7.594397
 21
12.009272
 31
0.0
  0
LINE
  5
275A
100
AcDbEntity
  8
OBJECT
100
AcDbLine
 10
6.037099
 20
13.372087
 30
0.0
 11
7.528977
 21
14.233423
 31
0.0
  0
LINE
  5
275B
100
AcDbEntity
  8
OBJECT
100
AcDbLine
 10
5.729854
 20
12.428749
 30
0.0
 11
6.308149
 21
12.15658
 31
0.0
  0
LINE
  5
275C
100
AcDbEntity
  8
OBJECT
100
AcDbLine
 10
6.789955
 20
13.002155
 30
0.0
 11
5.357225
 21
13.676455
 31
0.0
  0
LINE
  5
275D
100
AcDbEntity
  8
OBJECT
100
AcDbLine
 10
4.979403
 20
13.413897
 30
0.0
 11
5.357225
 21
13.676455
 31
0.0
  0
LINE
  5
275E
100
AcDbEntity
  8
OBJECT
100
AcDbLine
 10
4.619343
 20
11.453698
 30
0.0
 11
5.207726
 21
11.793401
 31
0.0
  0
LINE
  5
275F
100
AcDbEntity
  8
OBJECT
100
AcDbLine
 10
5.03461
 20
12.755958
 30
0.0
 11
5.599383
 21
12.490154
 31
0.0
  0
LWPOLYLINE
  5
2760
100
AcDbEntity
  8
OBJECT
100
AcDbPolyline
 90
        3
 70
     0
 43
0.0
 10
5.221251
 20
13.581964
 42
0.04201
 10
4.694554
 20
13.599591
 42
0.083826
 10
3.908426
 20
13.425632
 42
0.12004
  0
ARC
  5
2761
100
AcDbEntity
  8
OBJECT
100
AcDbCircle
 10
4.731843
 20
11.258843
 30
0.0
 40
0.225
100
AcDbArc
 50
60.0
 51
180.0
  0
LINE
  5
2762
100
AcDbEntity
  8
OBJECT
100
AcDbLine
 10
4.340692
 20
13.268918
 30
0.0
 11
2.70839
 21
12.326508
 31
0.0
  0
ARC
  5
2763
100
AcDbEntity
  8
OBJECT
100
AcDbCircle
 10
5.066355
 20
13.288773
 30
0.0
 40
0.15237
100
AcDbArc
 50
64.796446
 51
184.796446
  0
LINE
  5
2764
100
AcDbEntity
  8
OBJECT
100
AcDbLine
 10
4.914518
 20
13.276032
 30
0.0
 11
4.947658
 21
12.881082
 31
0.0
  0
ARC
  5
2765
100
AcDbEntity
  8
OBJECT
100
AcDbCircle
 10
5.099495
 20
12.893823
 30
0.0
 40
0.15237
100
AcDbArc
 50
184.796446
 51
244.796446
  0
LWPOLYLINE
  5
2766
100
AcDbEntity
  8
OBJECT
100
AcDbPolyline
 90
        2
 70
     0
 43
0.0
 10
4.92069
 20
13.20248
 42
0.046557
 10
4.340692
 20
13.268918
 42
0.046657
  0
LINE
  5
2767
100
AcDbEntity
  8
OBJECT
100
AcDbLine
 10
3.670407
 20
13.201089
 30
0.0
 11
3.557174
 21
12.816553
 31
0.0
  0
ARC
  5
2768
100
AcDbEntity
  8
OBJECT
100
AcDbCircle
 10
4.166045
 20
12.914129
 30
0.0
 40
0.572716
100
AcDbArc
 50
116.732188
 51
149.930433
  0
LINE
  5
2769
100
AcDbEntity
  8
OBJECT
100
AcDbLine
 10
5.823709
 20
12.720532
 30
0.0
 11
5.640807
 21
12.592125
 31
0.0
  0
LINE
  5
276A
100
AcDbEntity
  8
OBJECT
100
AcDbLine
 10
5.823709
 20
12.720532
 30
0.0
 11
5.871948
 21
12.528506
 31
0.0
  0
LINE
  5
276B
100
AcDbEntity
  8
OBJECT
100
AcDbLine
 10
5.709314
 20
12.883475
 30
0.0
 11
5.823709
 21
12.720532
 31
0.0
  0
LINE
  5
276C
100
AcDbEntity
  8
OBJECT
100
AcDbLine
 10
5.689046
 20
12.400099
 30
0.0
 11
5.588622
 21
12.500269
 31
0.0
  0
LINE
  5
276D
100
AcDbEntity
  8
OBJECT
100
AcDbLine
 10
5.640807
 20
12.592125
 30
0.0
 11
5.689046
 21
12.400099
 31
0.0
  0
LINE
  5
276E
100
AcDbEntity
  8
OBJECT
100
AcDbLine
 10
5.871948
 20
12.528506
 30
0.0
 11
5.689046
 21
12.400099
 31
0.0
  0
LINE
  5
276F
100
AcDbEntity
  8
OBJECT
100
AcDbLine
 10
5.362191
 20
12.865668
 30
0.0
 11
5.422291
 21
12.737188
 31
0.0
  0
LINE
  5
2770
100
AcDbEntity
  8
OBJECT
100
AcDbLine
 10
5.526412
 20
12.755068
 30
0.0
 11
5.362191
 21
12.865668
 31
0.0
  0
LINE
  5
2771
100
AcDbEntity
  8
OBJECT
100
AcDbLine
 10
5.545093
 20
12.994075
 30
0.0
 11
5.362191
 21
12.865668
 31
0.0
  0
LWPOLYLINE
  5
2772
100
AcDbEntity
  8
OBJECT
100
AcDbPolyline
 90
       16
 70
     1
 43
0.0
 10
5.408763
 20
12.799331
 42
0.302862
 10
5.404715
 20
12.78891
 42
0.055988
 10
5.422694
 20
12.736331
 42
0.024868
 10
5.451113
 20
12.683189
 42
0.017828
 10
5.496917
 20
12.612733
 42
0.017828
 10
5.547624
 20
12.545719
 42
0.024868
 10
5.587952
 20
12.500939
 42
0.055988
 10
5.631297
 20
12.466168
 42
0.302862
 10
5.642474
 20
12.466436
 42
0.302862
 10
5.646522
 20
12.476857
 42
0.055988
 10
5.628543
 20
12.529435
 42
0.024868
 10
5.600124
 20
12.582577
 42
0.017828
 10
5.55432
 20
12.653033
 42
0.017828
 10
5.503612
 20
12.720047
 42
0.024868
 10
5.463284
 20
12.764828
 42
0.055988
 10
5.419939
 20
12.799598
 42
0.302862
  0
LINE
  5
2773
100
AcDbEntity
  8
OBJECT
100
AcDbLine
 10
5.709314
 20
12.883475
 30
0.0
 11
5.526412
 21
12.755068
 31
0.0
  0
LINE
  5
2774
100
AcDbEntity
  8
OBJECT
100
AcDbLine
 10
5.526412
 20
12.755068
 30
0.0
 11
5.640807
 21
12.592125
 31
0.0
  0
LINE
  5
2775
100
AcDbEntity
  8
OBJECT
100
AcDbLine
 10
5.709314
 20
12.883475
 30
0.0
 11
5.545093
 21
12.994075
 31
0.0
  0
LINE
  5
2776
100
AcDbEntity
  8
OBJECT
100
AcDbLine
 10
9.478722
 20
11.449184
 30
0.0
 11
11.22156
 21
12.455411
 31
0.0
  0
LWPOLYLINE
  5
2777
100
AcDbEntity
  8
OBJECT
100
AcDbPolyline
 90
        5
 70
     0
 43
0.0
 10
10.74525
 20
13.809326
 42
0.046402
 10
10.151551
 20
14.439565
 42
0.088909
 10
9.002084
 20
15.136668
 42
0.104962
 10
7.713832
 20
15.342772
 42
0.154114
 10
6.34922
 20
14.834826
 42
0.12004
  0
LINE
  5
2778
100
AcDbEntity
  8
OBJECT
100
AcDbLine
 10
9.198539
 20
12.952048
 30
0.0
 11
10.72594
 21
13.833893
 31
0.0
  0
LINE
  5
2779
100
AcDbEntity
  8
OBJECT
100
AcDbLine
 10
9.53098
 20
12.22094
 30
0.0
 11
11.035845
 21
13.089775
 31
0.0
  0
LINE
  5
277A
100
AcDbEntity
  8
OBJECT
100
AcDbLine
 10
9.21785
 20
12.927481
 30
0.0
 11
10.74525
 21
13.809326
 31
0.0
  0
LINE
  5
277B
100
AcDbEntity
  8
OBJECT
100
AcDbLine
 10
9.45039
 20
14.929625
 30
0.0
 11
9.619264
 21
15.04698
 31
0.0
  0
ARC
  5
277C
100
AcDbEntity
  8
OBJECT
100
AcDbCircle
 10
9.466864
 20
14.950271
 30
0.0
 40
0.1524
100
AcDbArc
 50
0.0
 51
64.796446
  0
LINE
  5
277D
100
AcDbEntity
  8
OBJECT
100
AcDbLine
 10
7.520895
 20
11.966364
 30
0.0
 11
7.755322
 21
11.564781
 31
0.0
  0
LWPOLYLINE
  5
277E
100
AcDbEntity
  8
OBJECT
100
AcDbPolyline
 90
       15
 70
     0
 43
0.0
 10
7.49377
 20
11.399015
 42
0.043749
 10
7.561697
 20
11.351433
 42
0.106617
 10
7.6834
 20
11.312292
 42
0.156851
 10
7.769456
 20
11.330853
 42
0.156851
 10
7.828559
 20
11.3961
 42
0.106617
 10
7.855513
 20
11.521068
 42
0.072341
 10
7.835841
 20
11.656327
 42
0.058752
 10
7.769456
 20
11.810653
 42
0.058752
 10
7.668999
 20
11.945306
 42
0.072341
 10
7.561697
 20
12.029972
 42
0.106617
 10
7.439995
 20
12.069113
 42
0.156851
 10
7.353938
 20
12.050552
 42
0.156851
 10
7.294835
 20
11.985306
 42
0.106617
 10
7.267881
 20
11.860337
 42
0.027982
 10
7.270851
 20
11.807316
 42
0.058752
  0
LINE
  5
277F
100
AcDbEntity
  8
OBJECT
100
AcDbLine
 10
7.391352
 20
11.890743
 30
0.0
 11
7.625779
 21
11.48916
 31
0.0
  0
LINE
  5
2780
100
AcDbEntity
  8
OBJECT
100
AcDbLine
 10
7.879472
 20
11.110169
 30
0.0
 11
9.444224
 21
12.013579
 31
0.0
  0
LWPOLYLINE
  5
2781
100
AcDbEntity
  8
OBJECT
100
AcDbPolyline
 90
        2
 70
     0
 43
0.0
 10
7.138767
 20
11.743295
 42
0.039866
 10
6.633863
 20
12.290153
 42
0.088909
  0
LWPOLYLINE
  5
2782
100
AcDbEntity
  8
OBJECT
100
AcDbPolyline
 90
        3
 70
     0
 43
0.0
 10
7.924003
 20
11.792643
 42
0.06452
 10
7.132273
 20
12.696384
 42
0.030716
 10
6.763139
 20
12.983519
 42
0.104962
  0
LINE
  5
2783
100
AcDbEntity
  8
OBJECT
100
AcDbLine
 10
6.743637
 20
11.512635
 30
0.0
 11
6.978064
 21
11.111052
 31
0.0
  0
LINE
  5
2784
100
AcDbEntity
  8
OBJECT
100
AcDbLine
 10
6.87318
 20
11.588257
 30
0.0
 11
7.107607
 21
11.186673
 31
0.0
  0
LINE
  5
2785
100
AcDbEntity
  8
OBJECT
100
AcDbLine
 10
6.68545
 20
10.940237
 30
0.0
 11
7.845619
 21
11.617493
 31
0.0
  0
LINE
  5
2786
100
AcDbEntity
  8
OBJECT
100
AcDbLine
 10
6.484551
 20
11.361392
 30
0.0
 11
6.718978
 21
10.959809
 31
0.0
  0
LINE
  5
2787
100
AcDbEntity
  8
OBJECT
100
AcDbLine
 10
6.614094
 20
11.437013
 30
0.0
 11
6.848521
 21
11.03543
 31
0.0
  0
LINE
  5
2788
100
AcDbEntity
  8
OBJECT
100
AcDbLine
 10
6.355008
 20
11.28577
 30
0.0
 11
6.491271
 21
11.052346
 31
0.0
  0
LINE
  5
2789
100
AcDbEntity
  8
OBJECT
100
AcDbLine
 10
7.261809
 20
11.815121
 30
0.0
 11
7.496236
 21
11.413538
 31
0.0
  0
LWPOLYLINE
  5
278A
100
AcDbEntity
  8
OBJECT
100
AcDbPolyline
 90
        9
 70
     0
 43
0.0
 10
7.409243
 20
11.362756
 42
0.028771
 10
7.483285
 20
11.274995
 42
0.072341
 10
7.632651
 20
11.157137
 42
0.106617
 10
7.802063
 20
11.102652
 42
0.156851
 10
7.921856
 20
11.128489
 42
0.156851
 10
8.004129
 20
11.219314
 42
0.106617
 10
8.041649
 20
11.393273
 42
0.072341
 10
8.014265
 20
11.581556
 42
0.058657
 10
7.922046
 20
11.796053
 42
0.058752
  0
LINE
  5
278B
100
AcDbEntity
  8
OBJECT
100
AcDbLine
 10
7.002723
 20
11.663878
 30
0.0
 11
7.23715
 21
11.262295
 31
0.0
  0
LINE
  5
278C
100
AcDbEntity
  8
OBJECT
100
AcDbLine
 10
7.132266
 20
11.7395
 30
0.0
 11
7.366693
 21
11.337916
 31
0.0
  0
ARC
  5
278D
100
AcDbEntity
  8
OBJECT
100
AcDbCircle
 10
6.339893
 20
12.689395
 30
0.0
 40
0.15237
100
AcDbArc
 50
4.796446
 51
64.796446
  0
LINE
  5
278E
100
AcDbEntity
  8
OBJECT
100
AcDbLine
 10
6.484374
 20
12.789798
 30
0.0
 11
6.789955
 21
13.002155
 31
0.0
  0
LINE
  5
278F
100
AcDbEntity
  8
OBJECT
100
AcDbLine
 10
6.459985
 20
12.169321
 30
0.0
 11
6.837807
 21
12.431879
 31
0.0
  0
ARC
  5
2790
100
AcDbEntity
  8
OBJECT
100
AcDbCircle
 10
6.373033
 20
12.294445
 30
0.0
 40
0.15237
100
AcDbArc
 50
244.796446
 51
4.796446
  0
LINE
  5
2791
100
AcDbEntity
  8
OBJECT
100
AcDbLine
 10
6.49173
 20
12.702135
 30
0.0
 11
6.52487
 21
12.307185
 31
0.0
  0
LINE
  5
2792
100
AcDbEntity
  8
OBJECT
100
AcDbLine
 10
6.789955
 20
13.002155
 30
0.0
 11
6.837807
 21
12.431879
 31
0.0
  0
LINE
  5
2793
100
AcDbEntity
  8
OBJECT
100
AcDbLine
 10
6.862263
 20
14.42207
 30
0.0
 11
8.389664
 21
15.303915
 31
0.0
  0
ARC
  5
2794
100
AcDbEntity
  8
OBJECT
100
AcDbCircle
 10
7.895664
 20
15.333599
 30
0.0
 40
0.15237
100
AcDbArc
 50
64.796446
 51
184.796446
  0
LINE
  5
2795
100
AcDbEntity
  8
OBJECT
100
AcDbLine
 10
7.808712
 20
15.458723
 30
0.0
 11
8.114279
 21
15.671069
 31
0.0
  0
LINE
  5
2796
100
AcDbEntity
  8
OBJECT
100
AcDbLine
 10
8.282597
 20
15.319894
 30
0.0
 11
7.960548
 21
15.471463
 31
0.0
  0
LWPOLYLINE
  5
2797
100
AcDbEntity
  8
OBJECT
100
AcDbPolyline
 90
        6
 70
     0
 43
0.0
 10
9.377258
 20
11.974917
 42
0.048641
 10
9.412626
 20
11.990983
 42
0.156851
 10
9.494899
 20
12.081808
 42
0.106617
 10
9.532419
 20
12.255767
 42
0.072341
 10
9.505034
 20
12.44405
 42
0.058657
 10
9.412816
 20
12.658546
 42
0.058752
  0
LWPOLYLINE
  5
2798
100
AcDbEntity
  8
OBJECT
100
AcDbPolyline
 90
        5
 70
     0
 43
0.0
 10
10.669035
 20
13.463569
 42
0.058752
 10
10.752258
 20
13.288615
 42
0.072341
 10
10.854501
 20
13.168648
 42
0.106617
 10
10.983305
 20
13.096917
 42
0.080469
 10
11.035845
 20
13.089775
 42
0.082543
  0
LWPOLYLINE
  5
2799
100
AcDbEntity
  8
OBJECT
100
AcDbPolyline
 90
        3
 70
     0
 43
0.0
 10
10.627809
 20
13.741522
 42
0.040446
 10
10.628786
 20
13.653082
 42
0.058752
 10
10.669035
 20
13.463569
 42
0.058752
  0
LWPOLYLINE
  5
279A
100
AcDbEntity
  8
OBJECT
100
AcDbPolyline
 90
        4
 70
     0
 43
0.0
 10
11.565685
 20
12.179787
 42
0.037507
 10
11.471229
 20
12.295793
 42
0.072341
 10
11.321863
 20
12.41365
 42
0.064631
 10
11.22156
 20
12.455411
 42
0.156851
  0
LINE
  5
279B
100
AcDbEntity
  8
OBJECT
100
AcDbLine
 10
9.619264
 20
14.950271
 30
0.0
 11
9.619264
 21
14.83224
 31
0.0
  0
ELLIPSE
  5
279C
100
AcDbEntity
  8
OBJECT
100
AcDbEllipse
 10
20.183781
 20
10.392305
 30
0.0
 11
0.3964828831377434
 21
-0.6867284979259484
 31
0.0
210
0.0
220
0.0
230
1.0
 40
0.57735
 41
0.0
 42
6.283185307179586
  0
ELLIPSE
  5
279D
100
AcDbEntity
  8
OBJECT
100
AcDbEllipse
 10
20.465031
 20
10.554685
 30
0.0
 11
0.3964828831377434
 21
-0.6867284979259484
 31
0.0
210
0.0
220
0.0
230
1.0
 40
0.57735
 41
3.504165664780749
 42
5.920612295988677
  0
LINE
  5
279E
100
AcDbEntity
  8
OBJECT
100
AcDbLine
 10
22.058781
 20
12.941131
 30
0.0
 11
23.92242
 21
14.002735
 31
0.0
  0
ELLIPSE
  5
279F
100
AcDbEntity
  8
OBJECT
100
AcDbEllipse
 10
13.715031
 20
21.148153
 30
0.0
 11
0.3964828831377434
 21
-0.6867284979259484
 31
0.0
210
0.0
220
0.0
230
1.0
 40
0.57735
 41
3.504165664780749
 42
5.920612295988677
  0
ELLIPSE
  5
27A0
100
AcDbEntity
  8
OBJECT
100
AcDbEllipse
 10
13.433781
 20
20.985774
 30
0.0
 11
0.3964828831377434
 21
-0.6867284979259484
 31
0.0
210
0.0
220
0.0
230
1.0
 40
0.57735
 41
0.0
 42
6.283185307179586
  0
ELLIPSE
  5
27A1
100
AcDbEntity
  8
OBJECT
100
AcDbEllipse
 10
6.683781
 20
18.186534
 30
0.0
 11
0.3964828831377434
 21
-0.6867284979259484
 31
0.0
210
0.0
220
0.0
230
1.0
 40
0.57735
 41
0.0
 42
6.283185307179586
  0
LINE
  5
27A2
100
AcDbEntity
  8
OBJECT
100
AcDbLine
 10
7.641635
 20
17.308718
 30
0.0
 11
10.677883
 21
19.062262
 31
0.0
  0
ELLIPSE
  5
27A3
100
AcDbEntity
  8
OBJECT
100
AcDbEllipse
 10
6.965031
 20
18.348913
 30
0.0
 11
0.3964828831377434
 21
-0.6867284979259484
 31
0.0
210
0.0
220
0.0
230
1.0
 40
0.57735
 41
3.504165664780749
 42
5.920612295988677
  0
ELLIPSE
  5
27A4
100
AcDbEntity
  8
OBJECT
100
AcDbEllipse
 10
20.183781
 20
18.186534
 30
0.0
 11
0.3964828831377434
 21
-0.6867284979259484
 31
0.0
210
0.0
220
0.0
230
1.0
 40
0.57735
 41
0.0
 42
6.283185307179586
  0
ELLIPSE
  5
27A5
100
AcDbEntity
  8
OBJECT
100
AcDbEllipse
 10
20.465031
 20
18.348913
 30
0.0
 11
0.3964828831377434
 21
-0.6867284979259484
 31
0.0
210
0.0
220
0.0
230
1.0
 40
0.57735
 41
3.504165664780749
 42
5.920612295988677
  0
LINE
  5
27A6
100
AcDbEntity
  8
OBJECT
100
AcDbLine
 10
21.683781
 20
19.052559
 30
0.0
 11
22.058781
 21
19.269065
 31
0.0
  0
LINE
  5
27A7
100
AcDbEntity
  8
OBJECT
100
AcDbLine
 10
15.349411
 20
21.604065
 30
0.0
 11
18.300233
 21
23.404558
 31
0.0
  0
LINE
  5
27A8
100
AcDbEntity
  8
OBJECT
100
AcDbLine
 10
5.183781
 20
28.578838
 30
0.0
 11
5.558781
 21
28.795345
 31
0.0
  0
ELLIPSE
  5
27A9
100
AcDbEntity
  8
OBJECT
100
AcDbEllipse
 10
6.965031
 20
26.143142
 30
0.0
 11
0.3964828831377434
 21
-0.6867284979259484
 31
0.0
210
0.0
220
0.0
230
1.0
 40
0.57735
 41
3.504165664780749
 42
5.920612295988677
  0
ENDBLK
  5
27AB
100
AcDbEntity
  8
0
100
AcDbBlockEnd
  0
ENDSEC
  0
SECTION
  2
ENTITIES
  0
TEXT
  5
10CA
100
AcDbEntity
  8
DIM
100
AcDbText
 10
192.230752
 20
173.648757
 30
0.0
 40
0.547852
  1
ACTUAL
 41
0.886286
  7
ROMANS
 72
     5
 11
194.797246
 21
173.648757
 31
0.0
100
AcDbText
  0
TEXT
  5
10CB
100
AcDbEntity
  8
DIM
100
AcDbText
 10
192.230752
 20
172.787269
 30
0.0
 40
0.547852
  1
PIPE SIZE
 41
0.634695
  7
ROMANS
 72
     5
 11
194.797246
 21
172.787269
 31
0.0
100
AcDbText
  0
TEXT
  5
10CC
100
AcDbEntity
  8
DIM
100
AcDbText
 10
195.540337
 20
173.648757
 30
0.0
 40
0.547852
  1
SCH 40
 41
0.813039
  7
ROMANS
 72
     5
 11
198.106831
 21
173.648757
 31
0.0
100
AcDbText
  0
TEXT
  5
10CD
100
AcDbEntity
  8
DIM
100
AcDbText
 10
195.540337
 20
172.787269
 30
0.0
 40
0.547852
  1
SLEEVE
 41
0.894343
  7
ROMANS
 72
     5
 11
198.106831
 21
172.787269
 31
0.0
100
AcDbText
  0
LWPOLYLINE
  5
10CE
100
AcDbEntity
  8
DIM
 62
     6
100
AcDbPolyline
 90
        2
 70
     0
 43
0.092321
 39
7.385674
 10
188.556335
 20
174.965828
 10
205.863356
 20
174.965828
  0
LINE
  5
10D2
100
AcDbEntity
  8
DIM
100
AcDbLine
 10
188.556335
 20
172.468345
 30
0.0
 11
201.714452
 21
172.468345
 31
0.0
  0
TEXT
  5
10D3
100
AcDbEntity
  8
DIM
100
AcDbText
 10
189.296296
 20
171.457351
 30
0.0
 40
0.547852
  1
1/2
  7
ROMANS
100
AcDbText
  0
TEXT
  5
10D4
100
AcDbEntity
  8
DIM
100
AcDbText
 10
196.706423
 20
171.457351
 30
0.0
 40
0.547852
  1
2
  7
ROMANS
100
AcDbText
  0
TEXT
  5
10D5
100
AcDbEntity
  8
DIM
100
AcDbText
 10
189.296296
 20
169.993093
 30
0.0
 40
0.547852
  1
3/4
  7
ROMANS
100
AcDbText
  0
TEXT
  5
10D6
100
AcDbEntity
  8
DIM
100
AcDbText
 10
196.691259
 20
169.993093
 30
0.0
 40
0.547852
  1
2
  7
ROMANS
100
AcDbText
  0
TEXT
  5
10D7
100
AcDbEntity
  8
DIM
100
AcDbText
 10
204.381608
 20
169.993093
 30
0.0
 40
0.547852
  1
4
  7
ROMANS
100
AcDbText
  0
LINE
  5
10D8
100
AcDbEntity
  8
DIM
100
AcDbLine
 10
188.556335
 20
171.004087
 30
0.0
 11
201.714452
 21
171.004087
 31
0.0
  0
TEXT
  5
10D9
100
AcDbEntity
  8
DIM
100
AcDbText
 10
190.304629
 20
168.528835
 30
0.0
 40
0.547852
  1
1
  7
ROMANS
100
AcDbText
  0
TEXT
  5
10DA
100
AcDbEntity
  8
DIM
100
AcDbText
 10
195.478224
 20
168.528835
 30
0.0
 40
0.547852
  1
2 1/2
  7
ROMANS
100
AcDbText
  0
TEXT
  5
10DB
100
AcDbEntity
  8
DIM
100
AcDbText
 10
204.381608
 20
168.528835
 30
0.0
 40
0.547852
  1
5
  7
ROMANS
100
AcDbText
  0
LINE
  5
10DC
100
AcDbEntity
  8
DIM
100
AcDbLine
 10
188.556335
 20
169.539829
 30
0.0
 11
201.714452
 21
169.539829
 31
0.0
  0
TEXT
  5
10DD
100
AcDbEntity
  8
DIM
100
AcDbText
 10
188.685532
 20
167.064577
 30
0.0
 40
0.547852
  1
1 1/4
  7
ROMANS
100
AcDbText
  0
TEXT
  5
10DF
100
AcDbEntity
  8
DIM
100
AcDbText
 10
204.381608
 20
167.064577
 30
0.0
 40
0.547852
  1
5
  7
ROMANS
100
AcDbText
  0
LINE
  5
10E0
100
AcDbEntity
  8
DIM
100
AcDbLine
 10
188.556335
 20
168.075571
 30
0.0
 11
201.714452
 21
168.075571
 31
0.0
  0
TEXT
  5
10E1
100
AcDbEntity
  8
DIM
100
AcDbText
 10
188.715589
 20
165.600318
 30
0.0
 40
0.547852
  1
1 1/2
  7
ROMANS
100
AcDbText
  0
TEXT
  5
10E2
100
AcDbEntity
  8
DIM
100
AcDbText
 10
196.807558
 20
165.600318
 30
0.0
 40
0.547852
  1
3
  7
ROMANS
100
AcDbText
  0
TEXT
  5
10E3
100
AcDbEntity
  8
DIM
100
AcDbText
 10
204.381608
 20
165.600318
 30
0.0
 40
0.547852
  1
7
  7
ROMANS
100
AcDbText
  0
LINE
  5
10E4
100
AcDbEntity
  8
DIM
100
AcDbLine
 10
188.556335
 20
166.611313
 30
0.0
 11
201.714452
 21
166.611313
 31
0.0
  0
TEXT
  5
10E5
100
AcDbEntity
  8
DIM
100
AcDbText
 10
190.318678
 20
164.13606
 30
0.0
 40
0.547852
  1
2
  7
ROMANS
100
AcDbText
  0
TEXT
  5
10E6
100
AcDbEntity
  8
DIM
100
AcDbText
 10
196.790311
 20
164.13606
 30
0.0
 40
0.547852
  1
4
  7
ROMANS
100
AcDbText
  0
TEXT
  5
10E7
100
AcDbEntity
  8
DIM
100
AcDbText
 10
204.381608
 20
164.13606
 30
0.0
 40
0.547852
  1
6
  7
ROMANS
100
AcDbText
  0
LINE
  5
10E8
100
AcDbEntity
  8
DIM
100
AcDbLine
 10
188.556335
 20
165.147055
 30
0.0
 11
201.714452
 21
165.147055
 31
0.0
  0
TEXT
  5
10E9
100
AcDbEntity
  8
DIM
100
AcDbText
 10
188.780382
 20
162.671802
 30
0.0
 40
0.547852
  1
2 1/2
  7
ROMANS
100
AcDbText
  0
TEXT
  5
10EA
100
AcDbEntity
  8
DIM
100
AcDbText
 10
196.790311
 20
162.671802
 30
0.0
 40
0.547852
  1
4
  7
ROMANS
100
AcDbText
  0
TEXT
  5
10EB
100
AcDbEntity
  8
DIM
100
AcDbText
 10
204.381608
 20
162.671802
 30
0.0
 40
0.547852
  1
9
  7
ROMANS
100
AcDbText
  0
LINE
  5
10EC
100
AcDbEntity
  8
DIM
100
AcDbLine
 10
188.556335
 20
163.682797
 30
0.0
 11
201.714452
 21
163.682797
 31
0.0
  0
TEXT
  5
10ED
100
AcDbEntity
  8
DIM
100
AcDbText
 10
190.149666
 20
161.207544
 30
0.0
 40
0.547852
  1
3
  7
ROMANS
100
AcDbText
  0
TEXT
  5
10EE
100
AcDbEntity
  8
DIM
100
AcDbText
 10
196.790311
 20
161.207544
 30
0.0
 40
0.547852
  1
6
  7
ROMANS
100
AcDbText
  0
TEXT
  5
10EF
100
AcDbEntity
  8
DIM
100
AcDbText
 10
204.381608
 20
161.207544
 30
0.0
 40
0.547852
  1
4
  7
ROMANS
100
AcDbText
  0
LINE
  5
10F0
100
AcDbEntity
  8
DIM
100
AcDbLine
 10
188.556335
 20
162.218539
 30
0.0
 11
201.714452
 21
162.218539
 31
0.0
  0
TEXT
  5
10F1
100
AcDbEntity
  8
DIM
100
AcDbText
 10
190.149666
 20
159.743286
 30
0.0
 40
0.547852
  1
4
  7
ROMANS
100
AcDbText
  0
TEXT
  5
10F2
100
AcDbEntity
  8
DIM
100
AcDbText
 10
196.790311
 20
159.743286
 30
0.0
 40
0.547852
  1
6
  7
ROMANS
100
AcDbText
  0
TEXT
  5
10F3
100
AcDbEntity
  8
DIM
100
AcDbText
 10
203.841848
 20
159.743286
 30
0.0
 40
0.547852
  1
10
  7
ROMANS
100
AcDbText
  0
LINE
  5
10F4
100
AcDbEntity
  8
DIM
100
AcDbLine
 10
188.556335
 20
160.75428
 30
0.0
 11
201.714452
 21
160.75428
 31
0.0
  0
TEXT
  5
10F5
100
AcDbEntity
  8
DIM
100
AcDbText
 10
190.149666
 20
158.279028
 30
0.0
 40
0.547852
  1
5
  7
ROMANS
100
AcDbText
  0
TEXT
  5
10F6
100
AcDbEntity
  8
DIM
100
AcDbText
 10
196.790311
 20
158.279028
 30
0.0
 40
0.547852
  1
8
  7
ROMANS
100
AcDbText
  0
TEXT
  5
10F7
100
AcDbEntity
  8
DIM
100
AcDbText
 10
204.381608
 20
158.279028
 30
0.0
 40
0.547852
  1
6
  7
ROMANS
100
AcDbText
  0
LINE
  5
10F8
100
AcDbEntity
  8
DIM
100
AcDbLine
 10
188.556335
 20
159.290022
 30
0.0
 11
201.714452
 21
159.290022
 31
0.0
  0
TEXT
  5
10F9
100
AcDbEntity
  8
DIM
100
AcDbText
 10
190.149666
 20
156.81477
 30
0.0
 40
0.547852
  1
6
  7
ROMANS
100
AcDbText
  0
TEXT
  5
10FA
100
AcDbEntity
  8
DIM
100
AcDbText
 10
196.272419
 20
156.81477
 30
0.0
 40
0.547852
  1
10
  7
ROMANS
100
AcDbText
  0
TEXT
  5
10FB
100
AcDbEntity
  8
DIM
100
AcDbText
 10
203.841848
 20
156.81477
 30
0.0
 40
0.547852
  1
10
  7
ROMANS
100
AcDbText
  0
LINE
  5
10FC
100
AcDbEntity
  8
DIM
100
AcDbLine
 10
188.556335
 20
157.825764
 30
0.0
 11
201.714452
 21
157.825764
 31
0.0
  0
TEXT
  5
10FD
100
AcDbEntity
  8
DIM
100
AcDbText
 10
190.149666
 20
155.350512
 30
0.0
 40
0.547852
  1
8
  7
ROMANS
100
AcDbText
  0
TEXT
  5
10FE
100
AcDbEntity
  8
DIM
100
AcDbText
 10
196.272419
 20
155.350512
 30
0.0
 40
0.547852
  1
12
  7
ROMANS
100
AcDbText
  0
TEXT
  5
10FF
100
AcDbEntity
  8
DIM
100
AcDbText
 10
203.841848
 20
155.350512
 30
0.0
 40
0.547852
  1
12
  7
ROMANS
100
AcDbText
  0
LINE
  5
1100
100
AcDbEntity
  8
DIM
100
AcDbLine
 10
188.556335
 20
156.361506
 30
0.0
 11
201.714452
 21
156.361506
 31
0.0
  0
TEXT
  5
1101
100
AcDbEntity
  8
DIM
100
AcDbText
 10
189.6073
 20
153.886254
 30
0.0
 40
0.547852
  1
10
  7
ROMANS
100
AcDbText
  0
TEXT
  5
1102
100
AcDbEntity
  8
DIM
100
AcDbText
 10
196.272419
 20
153.886254
 30
0.0
 40
0.547852
  1
14
  7
ROMANS
100
AcDbText
  0
TEXT
  5
1103
100
AcDbEntity
  8
DIM
100
AcDbText
 10
203.841848
 20
153.886254
 30
0.0
 40
0.547852
  1
10
  7
ROMANS
100
AcDbText
  0
LINE
  5
1104
100
AcDbEntity
  8
DIM
100
AcDbLine
 10
188.556335
 20
154.897248
 30
0.0
 11
201.714452
 21
154.897248
 31
0.0
  0
TEXT
  5
1105
100
AcDbEntity
  8
DIM
100
AcDbText
 10
189.6073
 20
152.421995
 30
0.0
 40
0.547852
  1
12
  7
ROMANS
100
AcDbText
  0
TEXT
  5
1106
100
AcDbEntity
  8
DIM
100
AcDbText
 10
196.272419
 20
152.421995
 30
0.0
 40
0.547852
  1
16
  7
ROMANS
100
AcDbText
  0
TEXT
  5
1107
100
AcDbEntity
  8
DIM
100
AcDbText
 10
203.841848
 20
152.421995
 30
0.0
 40
0.547852
  1
12
  7
ROMANS
100
AcDbText
  0
LINE
  5
1108
100
AcDbEntity
  8
DIM
100
AcDbLine
 10
188.556335
 20
153.43299
 30
0.0
 11
201.714452
 21
153.43299
 31
0.0
  0
TEXT
  5
1109
100
AcDbEntity
  8
DIM
100
AcDbText
 10
189.6073
 20
150.957737
 30
0.0
 40
0.547852
  1
14
  7
ROMANS
100
AcDbText
  0
TEXT
  5
110A
100
AcDbEntity
  8
DIM
100
AcDbText
 10
196.272419
 20
150.957737
 30
0.0
 40
0.547852
  1
18
  7
ROMANS
100
AcDbText
  0
TEXT
  5
110B
100
AcDbEntity
  8
DIM
100
AcDbText
 10
203.841848
 20
150.957737
 30
0.0
 40
0.547852
  1
13
  7
ROMANS
100
AcDbText
  0
LINE
  5
110C
100
AcDbEntity
  8
DIM
100
AcDbLine
 10
188.556335
 20
151.968732
 30
0.0
 11
201.714452
 21
151.968732
 31
0.0
  0
TEXT
  5
110D
100
AcDbEntity
  8
DIM
100
AcDbText
 10
189.6073
 20
149.493479
 30
0.0
 40
0.547852
  1
16
  7
ROMANS
100
AcDbText
  0
TEXT
  5
110E
100
AcDbEntity
  8
DIM
100
AcDbText
 10
196.272419
 20
149.493479
 30
0.0
 40
0.547852
  1
20
  7
ROMANS
100
AcDbText
  0
TEXT
  5
110F
100
AcDbEntity
  8
DIM
100
AcDbText
 10
203.841848
 20
149.493479
 30
0.0
 40
0.547852
  1
15
  7
ROMANS
100
AcDbText
  0
LINE
  5
1110
100
AcDbEntity
  8
DIM
100
AcDbLine
 10
188.556335
 20
150.504474
 30
0.0
 11
201.714452
 21
150.504474
 31
0.0
  0
TEXT
  5
1111
100
AcDbEntity
  8
DIM
100
AcDbText
 10
189.6073
 20
148.029221
 30
0.0
 40
0.547852
  1
18
  7
ROMANS
100
AcDbText
  0
TEXT
  5
1112
100
AcDbEntity
  8
DIM
100
AcDbText
 10
196.272419
 20
148.029221
 30
0.0
 40
0.547852
  1
22
  7
ROMANS
100
AcDbText
  0
TEXT
  5
1113
100
AcDbEntity
  8
DIM
100
AcDbText
 10
203.841848
 20
148.029221
 30
0.0
 40
0.547852
  1
17
  7
ROMANS
100
AcDbText
  0
LINE
  5
1114
100
AcDbEntity
  8
DIM
100
AcDbLine
 10
188.556335
 20
149.040216
 30
0.0
 11
201.714452
 21
149.040216
 31
0.0
  0
TEXT
  5
1115
100
AcDbEntity
  8
DIM
100
AcDbText
 10
189.6073
 20
146.564963
 30
0.0
 40
0.547852
  1
20
  7
ROMANS
100
AcDbText
  0
TEXT
  5
1116
100
AcDbEntity
  8
DIM
100
AcDbText
 10
196.272419
 20
146.564963
 30
0.0
 40
0.547852
  1
24
  7
ROMANS
100
AcDbText
  0
TEXT
  5
1117
100
AcDbEntity
  8
DIM
100
AcDbText
 10
203.841848
 20
146.564963
 30
0.0
 40
0.547852
  1
18
  7
ROMANS
100
AcDbText
  0
LINE
  5
1118
100
AcDbEntity
  8
DIM
100
AcDbLine
 10
188.556335
 20
147.575957
 30
0.0
 11
201.714452
 21
147.575957
 31
0.0
  0
LWPOLYLINE
  5
1119
100
AcDbEntity
  8
DIM
 62
     6
100
AcDbPolyline
 90
        2
 70
     0
 43
0.092321
 39
7.385674
 10
205.863356
 20
176.392896
 10
205.863356
 20
146.223566
  0
LWPOLYLINE
  5
111D
100
AcDbEntity
  8
DIM
 62
     6
100
AcDbPolyline
 90
        2
 70
     0
 43
0.092321
 39
7.385674
 10
188.556335
 20
176.392896
 10
188.556335
 20
146.223566
  0
LWPOLYLINE
  5
1121
100
AcDbEntity
  8
DIM
 62
     6
100
AcDbPolyline
 90
        2
 70
     0
 43
0.092321
 39
7.385674
 10
188.556335
 20
146.223566
 10
201.714452
 20
146.223566
  0
TEXT
  5
1206
100
AcDbEntity
  8
DIM
100
AcDbText
 10
203.143117
 20
173.648757
 30
0.0
 40
0.547852
  1
N0. OF LINKS
 41
0.449213
  7
ROMANS
 72
     5
 11
205.709611
 21
173.648757
 31
0.0
100
AcDbText
  0
TEXT
  5
1207
100
AcDbEntity
  8
DIM
100
AcDbText
 10
203.143117
 20
172.787269
 30
0.0
 40
0.547852
  1
PER SEAL
 41
0.634695
  7
ROMANS
 72
     5
 11
205.709611
 21
172.787269
 31
0.0
100
AcDbText
  0
TEXT
  5
1208
100
AcDbEntity
  8
DIM
100
AcDbText
 10
188.941223
 20
173.648757
 30
0.0
 40
0.547852
  1
NOMINAL
 41
0.745286
  7
ROMANS
 72
     5
 11
191.507717
 21
173.648757
 31
0.0
100
AcDbText
  0
TEXT
  5
1209
100
AcDbEntity
  8
DIM
100
AcDbText
 10
188.941223
 20
172.787269
 30
0.0
 40
0.547852
  1
PIPE SIZE
 41
0.634695
  7
ROMANS
 72
     5
 11
191.507717
 21
172.787269
 31
0.0
100
AcDbText
  0
LINE
  5
120A
100
AcDbEntity
  8
DIM
100
AcDbLine
 10
191.845864
 20
174.965828
 30
0.0
 11
191.845864
 21
146.223566
 31
0.0
  0
LINE
  5
120B
100
AcDbEntity
  8
DIM
100
AcDbLine
 10
195.135393
 20
174.965828
 30
0.0
 11
195.135393
 21
146.223566
 31
0.0
  0
LINE
  5
120C
100
AcDbEntity
  8
DIM
100
AcDbLine
 10
198.424922
 20
174.965828
 30
0.0
 11
198.424922
 21
146.223566
 31
0.0
  0
LINE
  5
120D
100
AcDbEntity
  8
DIM
100
AcDbLine
 10
203.003514
 20
174.965828
 30
0.0
 11
203.003514
 21
146.223566
 31
0.0
  0
LWPOLYLINE
  5
120E
100
AcDbEntity
  8
DIM
 62
     6
100
AcDbPolyline
 90
        2
 70
     0
 43
0.092321
 39
7.385674
 10
188.556335
 20
172.468345
 10
205.863356
 20
172.468345
  0
LWPOLYLINE
  5
1212
100
AcDbEntity
  8
DIM
 62
     6
100
AcDbPolyline
 90
        2
 70
     0
 43
0.092321
 39
7.385674
 10
188.556335
 20
171.004087
 10
205.863356
 20
171.004087
  0
LWPOLYLINE
  5
1216
100
AcDbEntity
  8
DIM
 62
     6
100
AcDbPolyline
 90
        2
 70
     0
 43
0.092321
 39
7.385674
 10
188.556335
 20
169.539829
 10
205.863356
 20
169.539829
  0
LWPOLYLINE
  5
121A
100
AcDbEntity
  8
DIM
 62
     6
100
AcDbPolyline
 90
        2
 70
     0
 43
0.092321
 39
7.385674
 10
188.556335
 20
168.075571
 10
205.863356
 20
168.075571
  0
LWPOLYLINE
  5
121E
100
AcDbEntity
  8
DIM
 62
     6
100
AcDbPolyline
 90
        2
 70
     0
 43
0.092321
 39
7.385674
 10
188.556335
 20
166.611313
 10
205.863356
 20
166.611313
  0
LWPOLYLINE
  5
1222
100
AcDbEntity
  8
DIM
 62
     6
100
AcDbPolyline
 90
        2
 70
     0
 43
0.092321
 39
7.385674
 10
188.556335
 20
165.147055
 10
205.863356
 20
165.147055
  0
LWPOLYLINE
  5
1226
100
AcDbEntity
  8
DIM
 62
     6
100
AcDbPolyline
 90
        2
 70
     0
 43
0.092321
 39
7.385674
 10
188.556335
 20
163.682797
 10
205.863356
 20
163.682797
  0
LWPOLYLINE
  5
122A
100
AcDbEntity
  8
DIM
 62
     6
100
AcDbPolyline
 90
        2
 70
     0
 43
0.092321
 39
7.385674
 10
188.556335
 20
162.218539
 10
205.863356
 20
162.218539
  0
LWPOLYLINE
  5
122E
100
AcDbEntity
  8
DIM
 62
     6
100
AcDbPolyline
 90
        2
 70
     0
 43
0.092321
 39
7.385674
 10
188.556335
 20
160.75428
 10
205.863356
 20
160.75428
  0
LWPOLYLINE
  5
1232
100
AcDbEntity
  8
DIM
 62
     6
100
AcDbPolyline
 90
        2
 70
     0
 43
0.092321
 39
7.385674
 10
188.556335
 20
159.290022
 10
205.863356
 20
159.290022
  0
LWPOLYLINE
  5
1236
100
AcDbEntity
  8
DIM
 62
     6
100
AcDbPolyline
 90
        2
 70
     0
 43
0.092321
 39
7.385674
 10
188.556335
 20
157.825764
 10
205.863356
 20
157.825764
  0
LWPOLYLINE
  5
123A
100
AcDbEntity
  8
DIM
 62
     6
100
AcDbPolyline
 90
        2
 70
     0
 43
0.092321
 39
7.385674
 10
188.556335
 20
156.361506
 10
205.863356
 20
156.361506
  0
LWPOLYLINE
  5
123E
100
AcDbEntity
  8
DIM
 62
     6
100
AcDbPolyline
 90
        2
 70
     0
 43
0.092321
 39
7.385674
 10
188.556335
 20
154.897248
 10
205.863356
 20
154.897248
  0
LWPOLYLINE
  5
1242
100
AcDbEntity
  8
DIM
 62
     6
100
AcDbPolyline
 90
        2
 70
     0
 43
0.092321
 39
7.385674
 10
188.556335
 20
153.43299
 10
205.863356
 20
153.43299
  0
LWPOLYLINE
  5
1246
100
AcDbEntity
  8
DIM
 62
     6
100
AcDbPolyline
 90
        2
 70
     0
 43
0.092321
 39
7.385674
 10
188.556335
 20
151.968732
 10
205.863356
 20
151.968732
  0
LWPOLYLINE
  5
124A
100
AcDbEntity
  8
DIM
 62
     6
100
AcDbPolyline
 90
        2
 70
     0
 43
0.092321
 39
7.385674
 10
188.556335
 20
150.504474
 10
205.863356
 20
150.504474
  0
LWPOLYLINE
  5
124E
100
AcDbEntity
  8
DIM
 62
     6
100
AcDbPolyline
 90
        2
 70
     0
 43
0.092321
 39
7.385674
 10
188.556335
 20
149.040216
 10
205.863356
 20
149.040216
  0
LWPOLYLINE
  5
1252
100
AcDbEntity
  8
DIM
 62
     6
100
AcDbPolyline
 90
        2
 70
     0
 43
0.092321
 39
7.385674
 10
188.556335
 20
147.575957
 10
205.863356
 20
147.575957
  0
LWPOLYLINE
  5
1256
100
AcDbEntity
  8
DIM
 62
     6
100
AcDbPolyline
 90
        2
 70
     0
 43
0.092321
 39
7.385674
 10
188.556335
 20
146.223566
 10
205.863356
 20
146.223566
  0
LWPOLYLINE
  5
125A
100
AcDbEntity
  8
DIM
 62
     6
100
AcDbPolyline
 90
        2
 70
     0
 43
0.092321
 39
7.385674
 10
188.556335
 20
176.392896
 10
205.863356
 20
176.392896
  0
TEXT
  5
125E
100
AcDbEntity
  8
DIM
100
AcDbText
 10
188.737795
 20
175.407539
 30
0.0
 40
0.547852
  1
STANDARD DIAMETER SCH40 STEEL PIPE
  7
ROMANS
 72
     1
 11
197.229495
 21
175.407539
 31
0.0
100
AcDbText
  0
TEXT
  5
125F
100
AcDbEntity
  8
DIM
100
AcDbText
 10
192.131642
 20
146.564963
 30
0.0
 40
0.547852
  1
20.000
  7
ROMANS
100
AcDbText
  0
TEXT
  5
1260
100
AcDbEntity
  8
DIM
100
AcDbText
 10
192.081845
 20
148.029221
 30
0.0
 40
0.547852
  1
18.000
  7
ROMANS
100
AcDbText
  0
TEXT
  5
1261
100
AcDbEntity
  8
DIM
100
AcDbText
 10
192.081845
 20
149.493479
 30
0.0
 40
0.547852
  1
16.000
  7
ROMANS
100
AcDbText
  0
TEXT
  5
1262
100
AcDbEntity
  8
DIM
100
AcDbText
 10
192.081845
 20
150.957737
 30
0.0
 40
0.547852
  1
14.000
  7
ROMANS
100
AcDbText
  0
TEXT
  5
1263
100
AcDbEntity
  8
DIM
100
AcDbText
 10
192.081845
 20
152.421995
 30
0.0
 40
0.547852
  1
12.750
  7
ROMANS
100
AcDbText
  0
TEXT
  5
1264
100
AcDbEntity
  8
DIM
100
AcDbText
 10
192.081845
 20
153.886254
 30
0.0
 40
0.547852
  1
10.750
  7
ROMANS
100
AcDbText
  0
TEXT
  5
1265
100
AcDbEntity
  8
DIM
100
AcDbText
 10
192.554191
 20
155.350512
 30
0.0
 40
0.547852
  1
8.625
  7
ROMANS
100
AcDbText
  0
TEXT
  5
1266
100
AcDbEntity
  8
DIM
100
AcDbText
 10
192.554191
 20
156.81477
 30
0.0
 40
0.547852
  1
6.625
  7
ROMANS
100
AcDbText
  0
TEXT
  5
1267
100
AcDbEntity
  8
DIM
100
AcDbText
 10
192.631671
 20
158.279028
 30
0.0
 40
0.547852
  1
5.563
  7
ROMANS
100
AcDbText
  0
TEXT
  5
1268
100
AcDbEntity
  8
DIM
100
AcDbText
 10
192.631671
 20
159.743286
 30
0.0
 40
0.547852
  1
4.500
  7
ROMANS
100
AcDbText
  0
TEXT
  5
1269
100
AcDbEntity
  8
DIM
100
AcDbText
 10
192.631671
 20
161.207544
 30
0.0
 40
0.547852
  1
3.500
  7
ROMANS
100
AcDbText
  0
TEXT
  5
126A
100
AcDbEntity
  8
DIM
100
AcDbText
 10
192.631671
 20
162.671802
 30
0.0
 40
0.547852
  1
2.875
  7
ROMANS
100
AcDbText
  0
TEXT
  5
126B
100
AcDbEntity
  8
DIM
100
AcDbText
 10
192.645582
 20
168.528835
 30
0.0
 40
0.547852
  1
1.315
  7
ROMANS
100
AcDbText
  0
TEXT
  5
126C
100
AcDbEntity
  8
DIM
100
AcDbText
 10
192.631671
 20
164.13606
 30
0.0
 40
0.547852
  1
2.375
  7
ROMANS
100
AcDbText
  0
TEXT
  5
126D
100
AcDbEntity
  8
DIM
100
AcDbText
 10
192.645582
 20
165.600318
 30
0.0
 40
0.547852
  1
1.900
  7
ROMANS
100
AcDbText
  0
TEXT
  5
126E
100
AcDbEntity
  8
DIM
100
AcDbText
 10
192.66861
 20
167.064577
 30
0.0
 40
0.547852
  1
1.660
  7
ROMANS
100
AcDbText
  0
TEXT
  5
126F
100
AcDbEntity
  8
DIM
100
AcDbText
 10
193.151203
 20
171.457351
 30
0.0
 40
0.547852
  1
.840
  7
ROMANS
100
AcDbText
  0
TEXT
  5
1270
100
AcDbEntity
  8
DIM
100
AcDbText
 10
192.645582
 20
169.993093
 30
0.0
 40
0.547852
  1
1.050
  7
ROMANS
100
AcDbText
  0
TEXT
  5
1271
100
AcDbEntity
  8
DIM
100
AcDbText
 10
204.381608
 20
171.425015
 30
0.0
 40
0.547852
  1
4
  7
ROMANS
100
AcDbText
  0
LWPOLYLINE
  5
1272
100
AcDbEntity
  8
DIM
 62
     6
100
AcDbPolyline
 90
        2
 70
     0
 43
0.092321
 39
7.385674
 10
207.221852
 20
167.719213
 10
224.95856
 20
167.719213
  0
LWPOLYLINE
  5
1276
100
AcDbEntity
  8
DIM
 62
     6
100
AcDbPolyline
 90
        2
 70
     0
 43
0.092321
 39
7.385674
 10
207.221852
 20
146.223566
 10
224.95856
 20
146.223566
  0
LWPOLYLINE
  5
127A
100
AcDbEntity
  8
DIM
 62
     6
100
AcDbPolyline
 90
        2
 70
     0
 43
0.092321
 39
7.385674
 10
207.221852
 20
147.687824
 10
224.95856
 20
147.687824
  0
LWPOLYLINE
  5
127E
100
AcDbEntity
  8
DIM
 62
     6
100
AcDbPolyline
 90
        2
 70
     0
 43
0.092321
 39
7.385674
 10
207.221852
 20
149.152082
 10
224.95856
 20
149.152082
  0
LWPOLYLINE
  5
1282
100
AcDbEntity
  8
DIM
 62
     6
100
AcDbPolyline
 90
        2
 70
     0
 43
0.092321
 39
7.385674
 10
207.221852
 20
150.61634
 10
224.95856
 20
150.61634
  0
LWPOLYLINE
  5
1286
100
AcDbEntity
  8
DIM
 62
     6
100
AcDbPolyline
 90
        2
 70
     0
 43
0.092321
 39
7.385674
 10
207.221852
 20
152.080598
 10
224.95856
 20
152.080598
  0
LWPOLYLINE
  5
128A
100
AcDbEntity
  8
DIM
 62
     6
100
AcDbPolyline
 90
        2
 70
     0
 43
0.092321
 39
7.385674
 10
207.221852
 20
153.544856
 10
224.95856
 20
153.544856
  0
LWPOLYLINE
  5
128E
100
AcDbEntity
  8
DIM
 62
     6
100
AcDbPolyline
 90
        2
 70
     0
 43
0.092321
 39
7.385674
 10
207.221852
 20
155.009114
 10
224.95856
 20
155.009114
  0
LWPOLYLINE
  5
1292
100
AcDbEntity
  8
DIM
 62
     6
100
AcDbPolyline
 90
        2
 70
     0
 43
0.092321
 39
7.385674
 10
207.221852
 20
156.473372
 10
224.95856
 20
156.473372
  0
LWPOLYLINE
  5
1296
100
AcDbEntity
  8
DIM
 62
     6
100
AcDbPolyline
 90
        2
 70
     0
 43
0.092321
 39
7.385674
 10
207.221852
 20
157.93763
 10
224.95856
 20
157.93763
  0
LWPOLYLINE
  5
129A
100
AcDbEntity
  8
DIM
 62
     6
100
AcDbPolyline
 90
        2
 70
     0
 43
0.092321
 39
7.385674
 10
207.221852
 20
159.401889
 10
224.95856
 20
159.401889
  0
LWPOLYLINE
  5
129E
100
AcDbEntity
  8
DIM
 62
     6
100
AcDbPolyline
 90
        2
 70
     0
 43
0.092321
 39
7.385674
 10
207.221852
 20
160.866147
 10
224.95856
 20
160.866147
  0
LWPOLYLINE
  5
12A2
100
AcDbEntity
  8
DIM
 62
     6
100
AcDbPolyline
 90
        2
 70
     0
 43
0.092321
 39
7.385674
 10
207.221852
 20
162.330405
 10
224.95856
 20
162.330405
  0
LWPOLYLINE
  5
12A6
100
AcDbEntity
  8
DIM
 62
     6
100
AcDbPolyline
 90
        2
 70
     0
 43
0.092321
 39
7.385674
 10
207.221852
 20
163.794663
 10
224.95856
 20
163.794663
  0
LWPOLYLINE
  5
12AA
100
AcDbEntity
  8
DIM
 62
     6
100
AcDbPolyline
 90
        2
 70
     0
 43
0.092321
 39
7.385674
 10
207.221852
 20
166.292145
 10
224.95856
 20
166.292145
  0
LINE
  5
12AE
100
AcDbEntity
  8
DIM
100
AcDbLine
 10
221.669031
 20
166.292145
 30
0.0
 11
221.669031
 21
146.223566
 31
0.0
  0
LINE
  5
12AF
100
AcDbEntity
  8
DIM
100
AcDbLine
 10
217.09044
 20
166.292145
 30
0.0
 11
217.09044
 21
146.223566
 31
0.0
  0
LINE
  5
12B0
100
AcDbEntity
  8
DIM
100
AcDbLine
 10
213.80091
 20
166.292145
 30
0.0
 11
213.80091
 21
146.223566
 31
0.0
  0
LINE
  5
12B1
100
AcDbEntity
  8
DIM
100
AcDbLine
 10
210.511381
 20
166.292145
 30
0.0
 11
210.511381
 21
146.223566
 31
0.0
  0
TEXT
  5
12B2
100
AcDbEntity
  8
DIM
100
AcDbText
 10
210.753693
 20
153.99812
 30
0.0
 40
0.547852
  1
11.100
  7
ROMANS
100
AcDbText
  0
TEXT
  5
12B3
100
AcDbEntity
  8
DIM
100
AcDbText
 10
210.753693
 20
152.533862
 30
0.0
 40
0.547852
  1
13.200
  7
ROMANS
100
AcDbText
  0
TEXT
  5
12B4
100
AcDbEntity
  8
DIM
100
AcDbText
 10
210.753693
 20
149.605345
 30
0.0
 40
0.547852
  1
17.400
  7
ROMANS
100
AcDbText
  0
TEXT
  5
12B5
100
AcDbEntity
  8
DIM
100
AcDbText
 10
210.753693
 20
151.069604
 30
0.0
 40
0.547852
  1
15.300
  7
ROMANS
100
AcDbText
  0
TEXT
  5
12B6
100
AcDbEntity
  8
DIM
100
AcDbText
 10
210.676213
 20
148.141087
 30
0.0
 40
0.547852
  1
19.500
  7
ROMANS
100
AcDbText
  0
TEXT
  5
12B7
100
AcDbEntity
  8
DIM
100
AcDbText
 10
210.676213
 20
146.676829
 30
0.0
 40
0.547852
  1
21.600
  7
ROMANS
100
AcDbText
  0
LINE
  5
12B8
100
AcDbEntity
  8
DIM
100
AcDbLine
 10
207.941533
 20
146.223566
 30
0.0
 11
221.099649
 21
146.223566
 31
0.0
  0
LINE
  5
12B9
100
AcDbEntity
  8
DIM
100
AcDbLine
 10
207.221852
 20
147.687824
 30
0.0
 11
220.379969
 21
147.687824
 31
0.0
  0
LINE
  5
12BA
100
AcDbEntity
  8
DIM
100
AcDbLine
 10
207.221852
 20
149.152082
 30
0.0
 11
220.379969
 21
149.152082
 31
0.0
  0
LINE
  5
12BB
100
AcDbEntity
  8
DIM
100
AcDbLine
 10
207.221852
 20
150.61634
 30
0.0
 11
220.379969
 21
150.61634
 31
0.0
  0
LINE
  5
12BC
100
AcDbEntity
  8
DIM
100
AcDbLine
 10
207.221852
 20
152.080598
 30
0.0
 11
220.379969
 21
152.080598
 31
0.0
  0
LINE
  5
12BD
100
AcDbEntity
  8
DIM
100
AcDbLine
 10
207.221852
 20
153.544856
 30
0.0
 11
220.379969
 21
153.544856
 31
0.0
  0
TEXT
  5
12BE
100
AcDbEntity
  8
DIM
100
AcDbText
 10
208.600269
 20
146.676829
 30
0.0
 40
0.547852
  1
20
  7
ROMANS
100
AcDbText
  0
TEXT
  5
12BF
100
AcDbEntity
  8
DIM
100
AcDbText
 10
208.492812
 20
148.141087
 30
0.0
 40
0.547852
  1
18
  7
ROMANS
100
AcDbText
  0
TEXT
  5
12C0
100
AcDbEntity
  8
DIM
100
AcDbText
 10
208.466471
 20
153.99812
 30
0.0
 40
0.547852
  1
10
  7
ROMANS
100
AcDbText
  0
TEXT
  5
12C1
100
AcDbEntity
  8
DIM
100
AcDbText
 10
208.492812
 20
149.605345
 30
0.0
 40
0.547852
  1
16
  7
ROMANS
100
AcDbText
  0
TEXT
  5
12C2
100
AcDbEntity
  8
DIM
100
AcDbText
 10
208.492812
 20
151.069604
 30
0.0
 40
0.547852
  1
14
  7
ROMANS
100
AcDbText
  0
TEXT
  5
12C3
100
AcDbEntity
  8
DIM
100
AcDbText
 10
208.512791
 20
152.533862
 30
0.0
 40
0.547852
  1
12
  7
ROMANS
100
AcDbText
  0
TEXT
  5
12C4
100
AcDbEntity
  8
DIM
100
AcDbText
 10
214.937936
 20
148.141087
 30
0.0
 40
0.547852
  1
24
  7
ROMANS
100
AcDbText
  0
TEXT
  5
12C5
100
AcDbEntity
  8
DIM
100
AcDbText
 10
214.937936
 20
146.676829
 30
0.0
 40
0.547852
  1
25
  7
ROMANS
100
AcDbText
  0
TEXT
  5
12C6
100
AcDbEntity
  8
DIM
100
AcDbText
 10
222.688744
 20
146.676829
 30
0.0
 40
0.547852
  1
20
  7
ROMANS
100
AcDbText
  0
TEXT
  5
12C7
100
AcDbEntity
  8
DIM
100
AcDbText
 10
222.688744
 20
148.141087
 30
0.0
 40
0.547852
  1
18
  7
ROMANS
100
AcDbText
  0
TEXT
  5
12C8
100
AcDbEntity
  8
DIM
100
AcDbText
 10
214.913505
 20
151.069604
 30
0.0
 40
0.547852
  1
18
  7
ROMANS
100
AcDbText
  0
TEXT
  5
12C9
100
AcDbEntity
  8
DIM
100
AcDbText
 10
214.913505
 20
149.605345
 30
0.0
 40
0.547852
  1
22
  7
ROMANS
100
AcDbText
  0
TEXT
  5
12CA
100
AcDbEntity
  8
DIM
100
AcDbText
 10
214.913505
 20
153.99812
 30
0.0
 40
0.547852
  1
14
  7
ROMANS
100
AcDbText
  0
TEXT
  5
12CB
100
AcDbEntity
  8
DIM
100
AcDbText
 10
214.913505
 20
152.533862
 30
0.0
 40
0.547852
  1
16
  7
ROMANS
100
AcDbText
  0
TEXT
  5
12CC
100
AcDbEntity
  8
DIM
100
AcDbText
 10
222.688744
 20
149.605345
 30
0.0
 40
0.547852
  1
16
  7
ROMANS
100
AcDbText
  0
TEXT
  5
12CD
100
AcDbEntity
  8
DIM
100
AcDbText
 10
222.688744
 20
151.069604
 30
0.0
 40
0.547852
  1
16
  7
ROMANS
100
AcDbText
  0
TEXT
  5
12CE
100
AcDbEntity
  8
DIM
100
AcDbText
 10
222.688744
 20
152.533862
 30
0.0
 40
0.547852
  1
12
  7
ROMANS
100
AcDbText
  0
TEXT
  5
12CF
100
AcDbEntity
  8
DIM
100
AcDbText
 10
222.688744
 20
153.99812
 30
0.0
 40
0.547852
  1
11
  7
ROMANS
100
AcDbText
  0
TEXT
  5
12D0
100
AcDbEntity
  8
DIM
100
AcDbText
 10
211.294015
 20
162.783668
 30
0.0
 40
0.547852
  1
2.500
  7
ROMANS
100
AcDbText
  0
TEXT
  5
12D1
100
AcDbEntity
  8
DIM
100
AcDbText
 10
211.334127
 20
158.390894
 30
0.0
 40
0.547852
  1
4.800
  7
ROMANS
100
AcDbText
  0
TEXT
  5
12D2
100
AcDbEntity
  8
DIM
100
AcDbText
 10
211.3111
 20
161.31941
 30
0.0
 40
0.547852
  1
2.750
  7
ROMANS
100
AcDbText
  0
TEXT
  5
12D3
100
AcDbEntity
  8
DIM
100
AcDbText
 10
211.3111
 20
159.855152
 30
0.0
 40
0.547852
  1
3.960
  7
ROMANS
100
AcDbText
  0
TEXT
  5
12D4
100
AcDbEntity
  8
DIM
100
AcDbText
 10
211.3111
 20
156.926636
 30
0.0
 40
0.547852
  1
6.900
  7
ROMANS
100
AcDbText
  0
TEXT
  5
12D5
100
AcDbEntity
  8
DIM
100
AcDbText
 10
211.297188
 20
155.462378
 30
0.0
 40
0.547852
  1
9.050
  7
ROMANS
100
AcDbText
  0
TEXT
  5
12D6
100
AcDbEntity
  8
DIM
100
AcDbText
 10
210.896269
 20
164.975075
 30
0.0
 40
0.547852
  1
ACTUAL
 41
0.886286
  7
ROMANS
 72
     5
 11
213.462763
 21
164.975075
 31
0.0
100
AcDbText
  0
LINE
  5
12D7
100
AcDbEntity
  8
DIM
100
AcDbLine
 10
207.221852
 20
155.009114
 30
0.0
 11
220.379969
 21
155.009114
 31
0.0
  0
LINE
  5
12D8
100
AcDbEntity
  8
DIM
100
AcDbLine
 10
207.221852
 20
156.473372
 30
0.0
 11
220.379969
 21
156.473372
 31
0.0
  0
LINE
  5
12D9
100
AcDbEntity
  8
DIM
100
AcDbLine
 10
207.221852
 20
157.93763
 30
0.0
 11
220.379969
 21
157.93763
 31
0.0
  0
LINE
  5
12DA
100
AcDbEntity
  8
DIM
100
AcDbLine
 10
207.221852
 20
159.401889
 30
0.0
 11
220.379969
 21
159.401889
 31
0.0
  0
LINE
  5
12DB
100
AcDbEntity
  8
DIM
100
AcDbLine
 10
207.221852
 20
160.866147
 30
0.0
 11
220.379969
 21
160.866147
 31
0.0
  0
LINE
  5
12DC
100
AcDbEntity
  8
DIM
100
AcDbLine
 10
207.221852
 20
162.330405
 30
0.0
 11
220.379969
 21
162.330405
 31
0.0
  0
LINE
  5
12DD
100
AcDbEntity
  8
DIM
100
AcDbLine
 10
207.221852
 20
163.794663
 30
0.0
 11
220.379969
 21
163.794663
 31
0.0
  0
TEXT
  5
12DE
100
AcDbEntity
  8
DIM
100
AcDbText
 10
210.896269
 20
164.113587
 30
0.0
 40
0.547852
  1
PIPE SIZE
 41
0.634695
  7
ROMANS
 72
     5
 11
213.462763
 21
164.113587
 31
0.0
100
AcDbText
  0
TEXT
  5
12DF
100
AcDbEntity
  8
DIM
100
AcDbText
 10
208.942018
 20
156.926636
 30
0.0
 40
0.547852
  1
6
  7
ROMANS
100
AcDbText
  0
TEXT
  5
12E0
100
AcDbEntity
  8
DIM
100
AcDbText
 10
208.94976
 20
158.390894
 30
0.0
 40
0.547852
  1
4
  7
ROMANS
100
AcDbText
  0
TEXT
  5
12E1
100
AcDbEntity
  8
DIM
100
AcDbText
 10
208.995349
 20
155.462378
 30
0.0
 40
0.547852
  1
8
  7
ROMANS
100
AcDbText
  0
TEXT
  5
12E2
100
AcDbEntity
  8
DIM
100
AcDbText
 10
208.943501
 20
159.855152
 30
0.0
 40
0.547852
  1
3
  7
ROMANS
100
AcDbText
  0
TEXT
  5
12E3
100
AcDbEntity
  8
DIM
100
AcDbText
 10
207.60674
 20
164.113587
 30
0.0
 40
0.547852
  1
PIPE SIZE
 41
0.634695
  7
ROMANS
 72
     5
 11
210.173234
 21
164.113587
 31
0.0
100
AcDbText
  0
TEXT
  5
12E4
100
AcDbEntity
  8
DIM
100
AcDbText
 10
207.60674
 20
164.975075
 30
0.0
 40
0.547852
  1
NOMINAL
 41
0.745286
  7
ROMANS
 72
     5
 11
210.173234
 21
164.975075
 31
0.0
100
AcDbText
  0
TEXT
  5
12E5
100
AcDbEntity
  8
DIM
100
AcDbText
 10
208.880142
 20
162.783668
 30
0.0
 40
0.547852
  1
2
  7
ROMANS
100
AcDbText
  0
TEXT
  5
12E6
100
AcDbEntity
  8
DIM
100
AcDbText
 10
207.583823
 20
161.31941
 30
0.0
 40
0.547852
  1
2 1/4
  7
ROMANS
100
AcDbText
  0
TEXT
  5
12E7
100
AcDbEntity
  8
DIM
100
AcDbText
 10
215.416605
 20
159.855152
 30
0.0
 40
0.547852
  1
6
  7
ROMANS
100
AcDbText
  0
TEXT
  5
12E8
100
AcDbEntity
  8
DIM
100
AcDbText
 10
214.930752
 20
156.926636
 30
0.0
 40
0.547852
  1
10
  7
ROMANS
100
AcDbText
  0
TEXT
  5
12E9
100
AcDbEntity
  8
DIM
100
AcDbText
 10
214.913505
 20
155.462378
 30
0.0
 40
0.547852
  1
12
  7
ROMANS
100
AcDbText
  0
TEXT
  5
12EA
100
AcDbEntity
  8
DIM
100
AcDbText
 10
215.471567
 20
158.390894
 30
0.0
 40
0.547852
  1
8
  7
ROMANS
100
AcDbText
  0
TEXT
  5
12EB
100
AcDbEntity
  8
DIM
100
AcDbText
 10
223.182051
 20
155.462378
 30
0.0
 40
0.547852
  1
9
  7
ROMANS
100
AcDbText
  0
TEXT
  5
12EC
100
AcDbEntity
  8
DIM
100
AcDbText
 10
223.182051
 20
156.926636
 30
0.0
 40
0.547852
  1
7
  7
ROMANS
100
AcDbText
  0
TEXT
  5
12ED
100
AcDbEntity
  8
DIM
100
AcDbText
 10
223.182051
 20
158.390894
 30
0.0
 40
0.547852
  1
5
  7
ROMANS
100
AcDbText
  0
TEXT
  5
12EE
100
AcDbEntity
  8
DIM
100
AcDbText
 10
223.182051
 20
159.855152
 30
0.0
 40
0.547852
  1
5
  7
ROMANS
100
AcDbText
  0
TEXT
  5
12EF
100
AcDbEntity
  8
DIM
100
AcDbText
 10
218.13588
 20
164.113587
 30
0.0
 40
0.547852
  1
MODEL N0.
 41
0.571963
  7
ROMANS
 72
     5
 11
220.702374
 21
164.113587
 31
0.0
100
AcDbText
  0
TEXT
  5
12F0
100
AcDbEntity
  8
DIM
100
AcDbText
 10
215.432552
 20
162.813938
 30
0.0
 40
0.547852
  1
4
  7
ROMANS
100
AcDbText
  0
TEXT
  5
12F1
100
AcDbEntity
  8
DIM
100
AcDbText
 10
215.478001
 20
161.34968
 30
0.0
 40
0.547852
  1
5
  7
ROMANS
100
AcDbText
  0
TEXT
  5
12F2
100
AcDbEntity
  8
DIM
100
AcDbText
 10
214.205854
 20
164.113587
 30
0.0
 40
0.547852
  1
SLEEVE
 41
0.894343
  7
ROMANS
 72
     5
 11
216.772348
 21
164.113587
 31
0.0
100
AcDbText
  0
TEXT
  5
12F3
100
AcDbEntity
  8
DIM
100
AcDbText
 10
214.205854
 20
164.975075
 30
0.0
 40
0.547852
  1
SCH 40
 41
0.813039
  7
ROMANS
 72
     5
 11
216.772348
 21
164.975075
 31
0.0
100
AcDbText
  0
TEXT
  5
12F4
100
AcDbEntity
  8
DIM
100
AcDbText
 10
223.182051
 20
162.751332
 30
0.0
 40
0.547852
  1
6
  7
ROMANS
100
AcDbText
  0
TEXT
  5
12F5
100
AcDbEntity
  8
DIM
100
AcDbText
 10
223.182051
 20
161.31941
 30
0.0
 40
0.547852
  1
4
  7
ROMANS
100
AcDbText
  0
TEXT
  5
12F6
100
AcDbEntity
  8
DIM
100
AcDbText
 10
222.052751
 20
164.113587
 30
0.0
 40
0.547852
  1
PER SEAL
 41
0.634695
  7
ROMANS
 72
     5
 11
224.619245
 21
164.113587
 31
0.0
100
AcDbText
  0
TEXT
  5
12F7
100
AcDbEntity
  8
DIM
100
AcDbText
 10
222.052751
 20
164.975075
 30
0.0
 40
0.547852
  1
N0. OF LINKS
 41
0.449213
  7
ROMANS
 72
     5
 11
224.619245
 21
164.975075
 31
0.0
100
AcDbText
  0
TEXT
  5
12F8
100
AcDbEntity
  8
DIM
100
AcDbText
 10
208.185256
 20
166.743733
 30
0.0
 40
0.547852
  1
STANDARD DIAMETER DUCTILE IRON PIPE
 41
0.939872
  7
ROMANS
 72
     5
 11
224.147483
 21
166.743733
 31
0.0
100
AcDbText
  0
LWPOLYLINE
  5
12F9
100
AcDbEntity
  8
DIM
 62
     6
100
AcDbPolyline
 90
        2
 70
     0
 43
0.092321
 39
7.385674
 10
207.221852
 20
167.719213
 10
207.221852
 20
146.223566
  0
LWPOLYLINE
  5
12FD
100
AcDbEntity
  8
DIM
 62
     6
100
AcDbPolyline
 90
        2
 70
     0
 43
0.092321
 39
7.385674
 10
224.95856
 20
167.719213
 10
224.95856
 20
146.223566
  0
TEXT
  5
1304
100
AcDbEntity
  8
DIM
100
AcDbText
 10
198.475908
 20
171.457351
 30
0.0
 40
0.547852
  1
LS-200-C
  7
ROMANS
100
AcDbText
  0
TEXT
  5
1305
100
AcDbEntity
  8
DIM
100
AcDbText
 10
198.475908
 20
169.993093
 30
0.0
 40
0.547852
  1
LS-200-C
  7
ROMANS
100
AcDbText
  0
TEXT
  5
1306
100
AcDbEntity
  8
DIM
100
AcDbText
 10
198.475908
 20
168.528835
 30
0.0
 40
0.547852
  1
LS-200-C
  7
ROMANS
100
AcDbText
  0
TEXT
  5
1307
100
AcDbEntity
  8
DIM
100
AcDbText
 10
198.475908
 20
167.064577
 30
0.0
 40
0.547852
  1
LS-340-C
  7
ROMANS
100
AcDbText
  0
TEXT
  5
1308
100
AcDbEntity
  8
DIM
100
AcDbText
 10
198.475908
 20
165.600318
 30
0.0
 40
0.547852
  1
LS-200-C
  7
ROMANS
100
AcDbText
  0
TEXT
  5
1309
100
AcDbEntity
  8
DIM
100
AcDbText
 10
198.475908
 20
164.13606
 30
0.0
 40
0.547852
  1
LS-300-C
  7
ROMANS
100
AcDbText
  0
TEXT
  5
130A
100
AcDbEntity
  8
DIM
100
AcDbText
 10
198.475908
 20
162.671802
 30
0.0
 40
0.547852
  1
LS-200-C
  7
ROMANS
100
AcDbText
  0
TEXT
  5
130B
100
AcDbEntity
  8
DIM
100
AcDbText
 10
198.475908
 20
161.207544
 30
0.0
 40
0.547852
  1
LS-425-C
  7
ROMANS
100
AcDbText
  0
TEXT
  5
130C
100
AcDbEntity
  8
DIM
100
AcDbText
 10
198.475908
 20
159.743286
 30
0.0
 40
0.547852
  1
LS-300-C
  7
ROMANS
100
AcDbText
  0
TEXT
  5
130D
100
AcDbEntity
  8
DIM
100
AcDbText
 10
198.475908
 20
158.279028
 30
0.0
 40
0.547852
  1
LS-425-C
  7
ROMANS
100
AcDbText
  0
TEXT
  5
130E
100
AcDbEntity
  8
DIM
100
AcDbText
 10
198.475908
 20
156.81477
 30
0.0
 40
0.547852
  1
LS-475-C
  7
ROMANS
100
AcDbText
  0
TEXT
  5
130F
100
AcDbEntity
  8
DIM
100
AcDbText
 10
198.475908
 20
155.350512
 30
0.0
 40
0.547852
  1
LS-475-C
  7
ROMANS
100
AcDbText
  0
TEXT
  5
1310
100
AcDbEntity
  8
DIM
100
AcDbText
 10
198.475908
 20
153.886254
 30
0.0
 40
0.547852
  1
LS-425-C
  7
ROMANS
100
AcDbText
  0
TEXT
  5
1311
100
AcDbEntity
  8
DIM
100
AcDbText
 10
198.475908
 20
152.421995
 30
0.0
 40
0.547852
  1
LS-425-C
  7
ROMANS
100
AcDbText
  0
TEXT
  5
1312
100
AcDbEntity
  8
DIM
100
AcDbText
 10
198.475908
 20
150.957737
 30
0.0
 40
0.547852
  1
LS-400-C
  7
ROMANS
100
AcDbText
  0
TEXT
  5
1313
100
AcDbEntity
  8
DIM
100
AcDbText
 10
198.475908
 20
149.493479
 30
0.0
 40
0.547852
  1
LS-400-C
  7
ROMANS
100
AcDbText
  0
TEXT
  5
1314
100
AcDbEntity
  8
DIM
100
AcDbText
 10
198.475908
 20
148.029221
 30
0.0
 40
0.547852
  1
LS-400-C
  7
ROMANS
100
AcDbText
  0
TEXT
  5
1315
100
AcDbEntity
  8
DIM
100
AcDbText
 10
198.475908
 20
146.564963
 30
0.0
 40
0.547852
  1
LS-400-C
  7
ROMANS
100
AcDbText
  0
TEXT
  5
1316
100
AcDbEntity
  8
DIM
100
AcDbText
 10
217.183506
 20
162.813938
 30
0.0
 40
0.547852
  1
LS-300-C
  7
ROMANS
100
AcDbText
  0
TEXT
  5
1317
100
AcDbEntity
  8
DIM
100
AcDbText
 10
217.183506
 20
161.34968
 30
0.0
 40
0.547852
  1
LS-325-C
  7
ROMANS
100
AcDbText
  0
TEXT
  5
1318
100
AcDbEntity
  8
DIM
100
AcDbText
 10
217.183506
 20
159.885422
 30
0.0
 40
0.547852
  1
LS-325-C
  7
ROMANS
100
AcDbText
  0
TEXT
  5
1319
100
AcDbEntity
  8
DIM
100
AcDbText
 10
217.183506
 20
158.421164
 30
0.0
 40
0.547852
  1
LS-400-C
  7
ROMANS
100
AcDbText
  0
TEXT
  5
131A
100
AcDbEntity
  8
DIM
100
AcDbText
 10
217.183506
 20
156.956905
 30
0.0
 40
0.547852
  1
LS-400-C
  7
ROMANS
100
AcDbText
  0
TEXT
  5
131B
100
AcDbEntity
  8
DIM
100
AcDbText
 10
217.183506
 20
155.492647
 30
0.0
 40
0.547852
  1
LS-400-C
  7
ROMANS
100
AcDbText
  0
TEXT
  5
131C
100
AcDbEntity
  8
DIM
100
AcDbText
 10
217.183506
 20
154.028389
 30
0.0
 40
0.547852
  1
LS-400-C
  7
ROMANS
100
AcDbText
  0
TEXT
  5
131D
100
AcDbEntity
  8
DIM
100
AcDbText
 10
217.183506
 20
152.564131
 30
0.0
 40
0.547852
  1
LS-400-C
  7
ROMANS
100
AcDbText
  0
TEXT
  5
131E
100
AcDbEntity
  8
DIM
100
AcDbText
 10
217.183506
 20
151.099873
 30
0.0
 40
0.547852
  1
LS-325-C
  7
ROMANS
100
AcDbText
  0
TEXT
  5
131F
100
AcDbEntity
  8
DIM
100
AcDbText
 10
217.183506
 20
149.635615
 30
0.0
 40
0.547852
  1
LS-400-C
  7
ROMANS
100
AcDbText
  0
TEXT
  5
1320
100
AcDbEntity
  8
DIM
100
AcDbText
 10
217.183506
 20
148.171357
 30
0.0
 40
0.547852
  1
LS-400-C
  7
ROMANS
100
AcDbText
  0
TEXT
  5
1321
100
AcDbEntity
  8
DIM
100
AcDbText
 10
217.183506
 20
146.707099
 30
0.0
 40
0.547852
  1
LS-400-C
  7
ROMANS
100
AcDbText
  0
TEXT
  5
1322
100
AcDbEntity
  8
DIM
100
AcDbText
 10
218.103304
 20
164.975075
 30
0.0
 40
0.547852
  1
LINKSEAL
 41
0.697714
  7
ROMANS
 72
     5
 11
220.669798
 21
164.975075
 31
0.0
100
AcDbText
  0
TEXT
  5
1323
100
AcDbEntity
  8
DIM
100
AcDbText
 10
199.543559
 20
173.648757
 30
0.0
 40
0.547852
  1
LINKSEAL
 41
0.697714
  7
ROMANS
 72
     5
 11
202.110053
 21
173.648757
 31
0.0
100
AcDbText
  0
TEXT
  5
1324
100
AcDbEntity
  8
DIM
100
AcDbText
 10
199.543559
 20
172.787269
 30
0.0
 40
0.547852
  1
MODEL N0.
 41
0.571963
  7
ROMANS
 72
     5
 11
202.110053
 21
172.787269
 31
0.0
100
AcDbText
  0
TEXT
  5
1325
100
AcDbEntity
  8
DIM
100
AcDbText
 10
188.588464
 20
145.417847
 30
0.0
 40
0.465674
  1
ALL DIMENSIONS IN INCHES
  7
ROMANS
100
AcDbText
  0
LINE
  5
22E6
100
AcDbEntity
  8
LIMITS
100
AcDbLine
 10
267.74355
 20
241.118229
 30
0.0
 11
182.74355
 21
241.118229
 31
0.0
  0
LINE
  5
22E7
100
AcDbEntity
  8
LIMITS
100
AcDbLine
 10
182.74355
 20
131.118229
 30
0.0
 11
267.74355
 21
131.118229
 31
0.0
  0
TEXT
  5
22E8
100
AcDbEntity
  8
BORDER
 62
     6
100
AcDbText
 10
221.021517
 20
135.888711
 30
0.0
 40
0.512896
  1
Supersedes Prints
  7
ROMANS
100
AcDbText
  0
TEXT
  5
22E9
100
AcDbEntity
  8
BORDER
 62
     6
100
AcDbText
 10
220.985343
 20
137.837327
 30
0.0
 40
0.512896
  1
Date: 10/09/03
  7
ROMANS
100
AcDbText
  0
TEXT
  5
22EA
100
AcDbEntity
  8
BORDER
 62
     6
100
AcDbText
 10
220.985343
 20
141.253968
 30
0.0
 40
0.512896
  1
Scale: None
  7
ROMANS
100
AcDbText
  0
LWPOLYLINE
  5
22EB
100
AcDbEntity
  8
BORDER
 62
     5
100
AcDbPolyline
 90
        6
 70
     0
 43
0.4032
 10
184.213912
 20
143.556181
 10
184.213912
 20
238.842685
 42
-0.414214
 10
185.119093
 20
239.747866
 10
265.368007
 20
239.747866
 42
-0.414214
 10
266.273188
 20
238.842685
 10
266.273188
 20
143.556181
  0
LWPOLYLINE
  5
22EC
100
AcDbEntity
  8
BORDER
 62
     5
100
AcDbPolyline
 90
        2
 70
     0
 43
0.565738
 10
264.010235
 20
132.941181
 10
186.476865
 20
132.941181
  0
LWPOLYLINE
  5
22ED
100
AcDbEntity
  8
BORDER
 62
     5
100
AcDbPolyline
 90
        2
 70
     0
 43
0.565738
 10
204.580488
 20
143.124469
 10
245.906612
 20
143.124469
  0
LWPOLYLINE
  5
22EE
100
AcDbEntity
  8
BORDER
 62
     5
100
AcDbPolyline
 90
        2
 70
     0
 43
0.226295
 10
265.368007
 20
239.747866
 10
185.119093
 20
239.747866
  0
LINE
  5
22EF
100
AcDbEntity
  8
BORDER
100
AcDbLine
 10
220.695455
 20
134.072658
 30
0.0
 11
233.460372
 21
134.072658
 31
0.0
  0
LINE
  5
22F0
100
AcDbEntity
  8
BORDER
100
AcDbLine
 10
220.695455
 20
136.654287
 30
0.0
 11
233.460372
 21
136.654287
 31
0.0
  0
LINE
  5
22F1
100
AcDbEntity
  8
BORDER
100
AcDbLine
 10
220.695455
 20
137.467087
 30
0.0
 11
247.038089
 21
137.467087
 31
0.0
  0
LINE
  5
22F2
100
AcDbEntity
  8
BORDER
100
AcDbLine
 10
220.695455
 20
141.992993
 30
0.0
 11
245.906612
 21
141.992993
 31
0.0
  0
LINE
  5
22F3
100
AcDbEntity
  8
BORDER
100
AcDbLine
 10
203.449011
 20
136.654287
 30
0.0
 11
230.140064
 21
136.654287
 31
0.0
  0
LINE
  5
22F4
100
AcDbEntity
  8
BORDER
100
AcDbLine
 10
203.449011
 20
137.467087
 30
0.0
 11
230.140064
 21
137.467087
 31
0.0
  0
LINE
  5
22F5
100
AcDbEntity
  8
BORDER
100
AcDbLine
 10
204.580488
 20
141.992993
 30
0.0
 11
230.140064
 21
141.992993
 31
0.0
  0
LINE
  5
22F6
100
AcDbEntity
  8
BORDER
100
AcDbLine
 10
203.449011
 20
134.072658
 30
0.0
 11
230.140064
 21
134.072658
 31
0.0
  0
LINE
  5
22F7
100
AcDbEntity
  8
BORDER
 62
     5
100
AcDbLine
 10
265.368007
 20
239.747866
 30
0.0
 11
185.119093
 21
239.747866
 31
0.0
  0
TEXT
  5
22F8
100
AcDbEntity
  8
DIM
100
AcDbText
 10
195.272753
 20
209.401342
 30
0.0
 40
0.976563
  1
9. Tighten bolts around linkseals one at a time.
  7
ROMANS
100
AcDbText
  0
TEXT
  5
22F9
100
AcDbEntity
  8
DIM
100
AcDbText
 10
195.272753
 20
210.982443
 30
0.0
 40
0.976563
  1
8. Slide loose linkseals between pipe and sleeve.
  7
ROMANS
100
AcDbText
  0
TEXT
  5
22FA
100
AcDbEntity
  8
DIM
100
AcDbText
 10
195.272753
 20
212.563545
 30
0.0
 40
0.976563
  1
7. Connect the first and last linkseal together.
  7
ROMANS
100
AcDbText
  0
TEXT
  5
22FB
100
AcDbEntity
  8
DIM
100
AcDbText
 10
195.272753
 20
215.725747
 30
0.0
 40
0.976563
  1
6. Wrap linkseals around pipe -make sure bolt heads are facing to the interior
  7
ROMANS
100
AcDbText
  0
TEXT
  5
22FC
100
AcDbEntity
  8
DIM
100
AcDbText
 10
195.272753
 20
217.306848
 30
0.0
 40
0.976563
  1
5. Insert sleeve into hole and bolt in place.
  7
ROMANS
100
AcDbText
  0
TEXT
  5
22FD
100
AcDbEntity
  8
DIM
100
AcDbText
 10
195.272753
 20
218.887949
 30
0.0
 40
0.976563
  1
  Also, apply gasket material around bolts hole openings on plate.
  7
ROMANS
100
AcDbText
  0
TEXT
  5
22FE
100
AcDbEntity
  8
DIM
100
AcDbText
 10
195.272753
 20
220.469051
 30
0.0
 40
0.976563
  1
  around basin side of plate spiraling toward the outside of the plate.
  7
ROMANS
100
AcDbText
  0
TEXT
  5
22FF
100
AcDbEntity
  8
DIM
100
AcDbText
 10
195.272753
 20
222.050152
 30
0.0
 40
0.976563
  1
4. Remove the sleeve and apply a generous amount of gasket material
  7
ROMANS
100
AcDbText
  0
TEXT
  5
2300
100
AcDbEntity
  8
DIM
100
AcDbText
 10
195.272753
 20
223.631253
 30
0.0
 40
0.976563
  1
3. Insert sleeve into hole and use as template to drill holes for bolts
  7
ROMANS
100
AcDbText
  0
TEXT
  5
2301
100
AcDbEntity
  8
DIM
100
AcDbText
 10
195.272753
 20
226.793455
 30
0.0
 40
0.976563
  1
2. Cut hole to the outside diameter of the sleeve with a holesaw or saw
  7
ROMANS
100
AcDbText
  0
TEXT
  5
2302
100
AcDbEntity
  8
DIM
100
AcDbText
 10
195.272753
 20
228.374557
 30
0.0
 40
0.976563
  1
1. Measure and mark correct mounting depth on basin wall.
  7
ROMANS
100
AcDbText
  0
LINE
  5
230E
100
AcDbEntity
  8
LIMITS
100
AcDbLine
 10
182.74355
 20
241.118229
 30
0.0
 11
182.74355
 21
131.118229
 31
0.0
  0
LWPOLYLINE
  5
230F
100
AcDbEntity
  8
BORDER
 62
     5
100
AcDbPolyline
 90
        2
 70
     0
 43
0.226295
 10
184.213912
 20
143.556181
 10
184.213912
 20
238.842685
  0
LEADER
  5
2310
100
AcDbEntity
  8
DIM
100
AcDbLeader
  3
STANDARD
 76
     2
 10
204.4247
 20
191.404335
 30
0.0
 10
209.788887
 20
189.994543
 30
0.0
 77
   256
1001
ACAD
1000
DSTYLE
1002
{
1070
   340
1005
26
1070
   287
1070
     5
1070
    41
1040
0.75
1002
}
  0
ARC
  5
2311
100
AcDbEntity
  8
OBJECT
100
AcDbCircle
 10
204.213241
 20
191.158473
 30
0.0
 40
1.750432
100
AcDbArc
 50
301.026257
 51
58.973743
  0
ARC
  5
2312
100
AcDbEntity
  8
OBJECT
100
AcDbCircle
 10
193.620916
 20
191.158473
 30
0.0
 40
1.750432
100
AcDbArc
 50
121.026257
 51
238.973743
  0
ARC
  5
2313
102
{ACAD_REACTORS
330
2318
102
}
100
AcDbEntity
  8
0
100
AcDbCircle
 10
198.477163
 20
138.355313
 30
0.0
 40
0.86534
100
AcDbArc
 50
4.10812
 51
90.34444
  0
ARC
  5
2314
102
{ACAD_REACTORS
330
2318
102
}
100
AcDbEntity
  8
0
100
AcDbCircle
 10
198.527885
 20
138.440077
 30
0.0
 40
0.812714
100
AcDbArc
 50
265.488062
 51
358.394374
  0
LWPOLYLINE
  5
2315
100
AcDbEntity
  8
15
100
AcDbPolyline
 90
        2
 70
     0
 43
0.06
 10
192.324873
 20
139.567875
 10
199.215763
 20
139.567875
  0
ARC
  5
2316
102
{ACAD_REACTORS
330
2318
102
}
100
AcDbEntity
  8
0
100
AcDbCircle
 10
198.200273
 20
138.392483
 30
0.0
 40
0.657749
100
AcDbArc
 50
359.205673
 51
110.674935
  0
ARC
  5
2317
102
{ACAD_REACTORS
330
2318
102
}
100
AcDbEntity
  8
0
100
AcDbCircle
 10
198.224066
 20
138.37949
 30
0.0
 40
0.633906
100
AcDbArc
 50
246.179097
 51
0.350223
  0
HATCH
  5
2318
100
AcDbEntity
  8
15
100
AcDbHatch
 10
0.0
 20
0.0
 30
0.0
210
0.0
220
0.0
230
1.0
  2
SOLID
 70
     1
 71
     1
 91
        4
 92
        7
 72
     1
 73
     1
 93
       16
 10
196.0533144769949
 20
139.2315504584368
 42
0.0
 10
194.7363384002759
 20
139.2315504584368
 42
0.0
 10
194.7363384002759
 20
139.1524827955426
 42
0.0
 10
194.8653064308032
 20
139.1524827955426
 42
-0.4142135623730363
 10
195.1485964308032
 20
138.8691927955426
 42
0.0
 10
195.1485964308032
 20
136.7090088078891
 42
-0.414213562373094
 10
194.8653064308032
 20
136.4257188078891
 42
0.0
 10
194.7342083213161
 20
136.4257188078891
 42
0.0
 10
194.7342083213161
 20
136.3510491953245
 42
0.0
 10
195.9637858570087
 20
136.3510491953245
 42
0.0
 10
195.9637858570087
 20
136.4257188078891
 42
0.0
 10
195.8326877475216
 20
136.4257188078891
 42
-0.4142135623731246
 10
195.5493977475216
 20
136.709008807889
 42
0.0
 10
195.5493977475216
 20
137.7018874041429
 42
0.060911755802368
 10
196.0453047996293
 20
137.6407943940527
 42
0.4291497434369845
 10
196.9216334328
 20
138.428217775555
 42
0.3951020987304713
 97
        1
330
2377
 92
       22
 72
     1
 73
     1
 93
        3
 10
196.4393127199632
 20
138.3942771198908
 42
-0.5439228899214032
 10
195.5493977475216
 20
137.8104976723712
 42
0.0
 10
195.5493977475216
 20
139.0187850898454
 42
-0.5287425889470217
 97
        1
330
2387
 92
        7
 72
     1
 73
     1
 93
       16
 10
197.5672432686346
 20
136.6980963244728
 42
-0.4142135623731822
 10
197.2839532686346
 20
136.4148063244727
 42
0.0
 10
197.1528551591476
 20
136.4148063244727
 42
0.0
 10
197.1528551591476
 20
136.3401367119081
 42
0.0
 10
198.38243269484
 20
136.3401367119081
 42
0.0
 10
198.38243269484
 20
136.4148063244727
 42
0.0
 10
198.2513345853532
 20
136.4148063244727
 42
-0.4142135623733156
 10
197.968044585353
 20
136.6980963244727
 42
0.0
 10
197.968044585353
 20
137.6909749207265
 42
0.0609117558025116
 10
198.4639516374618
 20
137.6298819106363
 42
0.4291497434361343
 10
199.3402802706315
 20
138.4173052921374
 42
0.3916311771400421
 10
198.482365443509
 20
139.2206379750206
 42
0.0
 10
197.1549852381073
 20
139.2206379750206
 42
0.0
 10
197.1549852381072
 20
139.1415703121263
 42
0.0
 10
197.2839532686347
 20
139.1415703121263
 42
-0.4142135623730657
 10
197.5672432686346
 20
138.8582803121263
 42
0.0
 97
       16
330
239D
330
23A2
330
23A1
330
23A0
330
2389
330
238F
330
2390
330
2391
330
238D
330
2394
330
2393
330
2395
330
238C
330
2396
330
2314
330
2313
 92
       22
 72
     1
 73
     1
 93
        3
 10
197.968044585353
 20
139.0078726064291
 42
-0.5287425889405504
 10
198.8579595577947
 20
138.3833646364877
 42
-0.5439228899283255
 10
197.968044585353
 20
137.799585188955
 42
0.0
 97
        3
330
2316
330
2317
330
2388
 75
     0
 76
     1
 47
0.001778
 98
        4
 10
196.548048
 20
138.505869
 10
196.548048
 20
138.505869
 10
197.870259
 20
138.635559
 10
197.870259
 20
138.635559
  0
LWPOLYLINE
  5
2319
100
AcDbEntity
  8
15
100
AcDbPolyline
 90
        4
 70
     1
 43
0.015
 10
198.77596
 20
134.66903
 42
1.0
 10
198.77596
 20
135.774976
 10
198.35856
 20
135.774976
 10
198.35856
 20
134.66903
  0
LWPOLYLINE
  5
231A
100
AcDbEntity
  8
15
100
AcDbPolyline
 90
        2
 70
     0
 43
0.06
 10
186.017574
 20
136.130763
 10
199.533784
 20
136.130763
  0
LINE
  5
231B
100
AcDbEntity
  8
15
100
AcDbLine
 10
186.017574
 20
136.130763
 30
0.0
 11
199.533784
 21
136.130763
 31
0.0
  0
LWPOLYLINE
  5
231C
100
AcDbEntity
  8
15
100
AcDbPolyline
 90
        9
 70
     1
 43
0.12
 10
186.998425
 20
133.657476
 42
-0.293059
 10
185.713964
 20
135.456946
 10
185.713964
 20
140.520738
 42
-0.385293
 10
187.33425
 20
142.311265
 10
198.141616
 20
142.311265
 42
-0.385291
 10
199.761893
 20
140.520739
 10
199.761893
 20
135.456947
 42
-0.414214
 10
197.962423
 20
133.657477
 10
186.998425
 20
133.657476
  0
LINE
  5
231D
100
AcDbEntity
  8
15
100
AcDbLine
 10
197.346381
 20
189.592058
 30
0.0
 11
200.88931
 21
189.592058
 31
0.0
  0
LINE
  5
231E
100
AcDbEntity
  8
15
100
AcDbLine
 10
197.346381
 20
189.545158
 30
0.0
 11
200.88931
 21
189.545158
 31
0.0
  0
LINE
  5
231F
100
AcDbEntity
  8
15
100
AcDbLine
 10
197.346381
 20
189.498258
 30
0.0
 11
200.88931
 21
189.498258
 31
0.0
  0
LINE
  5
2320
100
AcDbEntity
  8
15
100
AcDbLine
 10
197.346381
 20
189.451358
 30
0.0
 11
200.88931
 21
189.451358
 31
0.0
  0
LINE
  5
2321
100
AcDbEntity
  8
15
100
AcDbLine
 10
197.346381
 20
189.404458
 30
0.0
 11
200.88931
 21
189.404458
 31
0.0
  0
LINE
  5
2322
100
AcDbEntity
  8
15
100
AcDbLine
 10
197.346381
 20
189.357558
 30
0.0
 11
200.88931
 21
189.357558
 31
0.0
  0
LINE
  5
2323
100
AcDbEntity
  8
15
100
AcDbLine
 10
197.346381
 20
189.310658
 30
0.0
 11
200.88931
 21
189.310658
 31
0.0
  0
LINE
  5
2324
100
AcDbEntity
  8
15
100
AcDbLine
 10
197.346381
 20
189.263758
 30
0.0
 11
200.88931
 21
189.263758
 31
0.0
  0
LINE
  5
2325
100
AcDbEntity
  8
15
100
AcDbLine
 10
197.346381
 20
189.216858
 30
0.0
 11
200.88931
 21
189.216858
 31
0.0
  0
LINE
  5
2326
100
AcDbEntity
  8
15
100
AcDbLine
 10
197.346381
 20
189.169983
 30
0.0
 11
200.88931
 21
189.169983
 31
0.0
  0
LINE
  5
2327
100
AcDbEntity
  8
15
100
AcDbLine
 10
197.346381
 20
189.123108
 30
0.0
 11
200.88931
 21
189.123108
 31
0.0
  0
LINE
  5
2328
100
AcDbEntity
  8
15
100
AcDbLine
 10
197.346381
 20
189.076233
 30
0.0
 11
200.88931
 21
189.076233
 31
0.0
  0
LINE
  5
2329
100
AcDbEntity
  8
15
100
AcDbLine
 10
197.346381
 20
189.029358
 30
0.0
 11
200.88931
 21
189.029358
 31
0.0
  0
LINE
  5
232A
100
AcDbEntity
  8
15
100
AcDbLine
 10
197.346381
 20
188.982483
 30
0.0
 11
200.88931
 21
188.982483
 31
0.0
  0
LINE
  5
232B
100
AcDbEntity
  8
15
100
AcDbLine
 10
197.346381
 20
188.935608
 30
0.0
 11
200.88931
 21
188.935608
 31
0.0
  0
LINE
  5
232C
100
AcDbEntity
  8
15
100
AcDbLine
 10
197.346381
 20
188.888733
 30
0.0
 11
200.88931
 21
188.888733
 31
0.0
  0
LINE
  5
232D
100
AcDbEntity
  8
15
100
AcDbLine
 10
197.346381
 20
188.841858
 30
0.0
 11
200.88931
 21
188.841858
 31
0.0
  0
LINE
  5
232E
100
AcDbEntity
  8
15
100
AcDbLine
 10
197.346381
 20
188.794983
 30
0.0
 11
200.88931
 21
188.794983
 31
0.0
  0
LINE
  5
232F
100
AcDbEntity
  8
15
100
AcDbLine
 10
197.346381
 20
188.748108
 30
0.0
 11
200.88931
 21
188.748108
 31
0.0
  0
LINE
  5
2330
100
AcDbEntity
  8
15
100
AcDbLine
 10
197.550318
 20
188.701233
 30
0.0
 11
200.689393
 21
188.701233
 31
0.0
  0
LINE
  5
2331
100
AcDbEntity
  8
15
100
AcDbLine
 10
197.550318
 20
188.654358
 30
0.0
 11
200.689393
 21
188.654358
 31
0.0
  0
LINE
  5
2332
100
AcDbEntity
  8
15
100
AcDbLine
 10
197.550318
 20
188.607483
 30
0.0
 11
200.689393
 21
188.607483
 31
0.0
  0
LINE
  5
2333
100
AcDbEntity
  8
15
100
AcDbLine
 10
197.550318
 20
188.560608
 30
0.0
 11
200.689393
 21
188.560608
 31
0.0
  0
LINE
  5
2334
100
AcDbEntity
  8
15
100
AcDbLine
 10
197.550318
 20
188.513733
 30
0.0
 11
200.689393
 21
188.513733
 31
0.0
  0
LINE
  5
2335
100
AcDbEntity
  8
15
100
AcDbLine
 10
197.550318
 20
188.466858
 30
0.0
 11
200.689393
 21
188.466858
 31
0.0
  0
LINE
  5
2336
100
AcDbEntity
  8
15
100
AcDbLine
 10
197.346381
 20
187.341858
 30
0.0
 11
200.88931
 21
187.341858
 31
0.0
  0
LINE
  5
2337
100
AcDbEntity
  8
15
100
AcDbLine
 10
197.346381
 20
187.388733
 30
0.0
 11
200.88931
 21
187.388733
 31
0.0
  0
LINE
  5
2338
100
AcDbEntity
  8
15
100
AcDbLine
 10
197.346381
 20
187.435608
 30
0.0
 11
200.88931
 21
187.435608
 31
0.0
  0
LINE
  5
2339
100
AcDbEntity
  8
15
100
AcDbLine
 10
197.346381
 20
187.482483
 30
0.0
 11
200.88931
 21
187.482483
 31
0.0
  0
LINE
  5
233A
100
AcDbEntity
  8
15
100
AcDbLine
 10
197.346381
 20
187.529358
 30
0.0
 11
200.88931
 21
187.529358
 31
0.0
  0
LINE
  5
233B
100
AcDbEntity
  8
15
100
AcDbLine
 10
197.346381
 20
187.576233
 30
0.0
 11
200.88931
 21
187.576233
 31
0.0
  0
LINE
  5
233C
100
AcDbEntity
  8
15
100
AcDbLine
 10
197.346381
 20
187.623108
 30
0.0
 11
200.88931
 21
187.623108
 31
0.0
  0
LINE
  5
233D
100
AcDbEntity
  8
15
100
AcDbLine
 10
197.346381
 20
187.669983
 30
0.0
 11
200.88931
 21
187.669983
 31
0.0
  0
LINE
  5
233E
100
AcDbEntity
  8
15
100
AcDbLine
 10
197.550318
 20
187.716858
 30
0.0
 11
200.689393
 21
187.716858
 31
0.0
  0
LINE
  5
233F
100
AcDbEntity
  8
15
100
AcDbLine
 10
197.550318
 20
187.763733
 30
0.0
 11
200.689393
 21
187.763733
 31
0.0
  0
LINE
  5
2340
100
AcDbEntity
  8
15
100
AcDbLine
 10
197.550318
 20
187.810608
 30
0.0
 11
200.689393
 21
187.810608
 31
0.0
  0
LINE
  5
2341
100
AcDbEntity
  8
15
100
AcDbLine
 10
197.550318
 20
187.857483
 30
0.0
 11
200.689393
 21
187.857483
 31
0.0
  0
LINE
  5
2342
100
AcDbEntity
  8
15
100
AcDbLine
 10
197.550318
 20
187.904358
 30
0.0
 11
200.689393
 21
187.904358
 31
0.0
  0
LINE
  5
2343
100
AcDbEntity
  8
15
100
AcDbLine
 10
197.550318
 20
187.951233
 30
0.0
 11
200.689393
 21
187.951233
 31
0.0
  0
LWPOLYLINE
  5
2344
100
AcDbEntity
  8
BORDER
 62
     5
100
AcDbPolyline
 90
        2
 70
     0
 43
0.565738
 10
186.476865
 20
143.124469
 10
198.923106
 20
143.124469
  0
LWPOLYLINE
  5
2345
100
AcDbEntity
  8
BORDER
 62
     5
100
AcDbPolyline
 90
        2
 70
     0
 43
0.565738
 10
198.923106
 20
143.124469
 42
-0.414214
 10
201.186058
 20
140.861516
 42
0.560527
  0
LINE
  5
2346
100
AcDbEntity
  8
CENTER
100
AcDbLine
 10
197.898654
 20
185.158473
 30
0.0
 11
201.172013
 21
185.158473
 31
0.0
  0
LINE
  5
2347
102
{ACAD_REACTORS
330
26B4
330
26CD
102
}
100
AcDbEntity
  8
OBJECT
100
AcDbLine
 10
198.612026
 20
184.877223
 30
0.0
 11
200.87738
 21
184.877223
 31
0.0
  0
LINE
  5
2348
102
{ACAD_REACTORS
330
26B4
330
26CD
102
}
100
AcDbEntity
  8
OBJECT
100
AcDbLine
 10
198.612026
 20
185.439723
 30
0.0
 11
200.87738
 21
185.439723
 31
0.0
  0
LINE
  5
2349
102
{ACAD_REACTORS
330
26B4
102
}
100
AcDbEntity
  8
OBJECT
100
AcDbLine
 10
198.917079
 20
183.658473
 30
0.0
 11
199.292079
 21
183.658473
 31
0.0
  0
LINE
  5
234A
100
AcDbEntity
  8
OBJECT
100
AcDbLine
 10
192.718689
 20
189.658473
 30
0.0
 11
205.115468
 21
189.658473
 31
0.0
  0
TEXT
  5
234B
100
AcDbEntity
  8
DIM
100
AcDbText
 10
196.880206
 20
177.79884
 30
0.0
 40
0.825
  1
SECTION A-A
  7
ROMANS
100
AcDbText
  0
LINE
  5
234C
100
AcDbEntity
  8
15
100
AcDbLine
 10
200.689393
 20
187.973503
 30
0.0
 11
197.550318
 21
187.973503
 31
0.0
  0
LINE
  5
234D
100
AcDbEntity
  8
15
100
AcDbLine
 10
200.689393
 20
188.442403
 30
0.0
 11
197.550318
 21
188.442403
 31
0.0
  0
LINE
  5
234E
100
AcDbEntity
  8
OBJECT
100
AcDbLine
 10
201.105
 20
187.973503
 30
0.0
 11
196.972818
 21
187.973503
 31
0.0
  0
LINE
  5
234F
100
AcDbEntity
  8
OBJECT
100
AcDbLine
 10
201.105
 20
188.442403
 30
0.0
 11
196.972818
 21
188.442403
 31
0.0
  0
INSERT
  5
2350
100
AcDbEntity
  8
HATCH
100
AcDbBlockReference
  2
*X1
 10
-302.924117
 20
401.373108
 30
0.0
 41
-1.5
 42
1.5
 43
1.5
 50
180.0
1001
ACAD
1000
HATCH
1002
{
1070
    16
1000
ANSI38
1040
1.0
1040
0.0
1002
}
  0
LINE
  5
2351
102
{ACAD_REACTORS
330
26B4
330
26CD
102
}
100
AcDbEntity
  8
OBJECT
100
AcDbLine
 10
195.802154
 20
186.951648
 30
0.0
 11
202.782003
 21
186.951648
 31
0.0
  0
LINE
  5
2352
100
AcDbEntity
  8
OBJECT
100
AcDbLine
 10
195.802154
 20
187.326648
 30
0.0
 11
202.782003
 21
187.326648
 31
0.0
  0
INSERT
  5
2353
100
AcDbEntity
  8
HATCH
100
AcDbBlockReference
  2
*X0
 10
-302.924117
 20
401.373108
 30
0.0
 41
-1.5
 42
1.5
 43
1.5
 50
180.0
1001
ACAD
1000
HATCH
1002
{
1070
    16
1000
ANSI32
1040
1.0
1040
0.0
1002
}
  0
LWPOLYLINE
  5
2354
100
AcDbEntity
  8
BORDER
 62
     5
100
AcDbPolyline
 90
        2
 70
     0
 43
0.565738
 10
186.476865
 20
143.124469
 42
0.414214
 10
184.213912
 20
140.861516
 42
-0.560527
  0
LWPOLYLINE
  5
2355
100
AcDbEntity
  8
BORDER
 62
     5
100
AcDbPolyline
 90
        2
 70
     0
 43
0.565738
 10
186.476865
 20
132.941181
 42
-0.414214
 10
184.213912
 20
135.204134
 42
0.560527
  0
LWPOLYLINE
  5
2356
100
AcDbEntity
  8
BORDER
 62
     5
100
AcDbPolyline
 90
        2
 70
     0
 43
0.565738
 10
184.213912
 20
140.861516
 10
184.213912
 20
135.204134
  0
LWPOLYLINE
  5
2357
100
AcDbEntity
  8
15
100
AcDbPolyline
 90
        3
 70
     0
 43
0.015
 10
189.135454
 20
135.611072
 42
0.678285
 10
188.201608
 20
135.222003
 42
0.788239
 10
189.135454
 20
134.904657
  0
LINE
  5
2358
102
{ACAD_REACTORS
330
235D
102
}
100
AcDbEntity
  8
15
100
AcDbLine
 10
192.140666
 20
139.555927
 30
0.0
 11
191.99741
 21
139.555927
 31
0.0
  0
LWPOLYLINE
  5
2359
100
AcDbEntity
  8
15
100
AcDbPolyline
 90
        5
 70
     0
 43
0.015
 10
191.856426
 20
135.207905
 10
192.143469
 20
135.207905
 42
1.0
 10
192.143469
 20
135.774976
 10
191.856426
 20
135.774976
 10
191.856426
 20
134.66903
  0
ARC
  5
235A
102
{ACAD_REACTORS
330
235D
102
}
100
AcDbEntity
  8
0
100
AcDbCircle
 10
190.6277
 20
139.554087
 30
0.0
 40
1.36971
100
AcDbArc
 50
0.076996
 51
90.0
  0
LINE
  5
235B
102
{ACAD_REACTORS
330
235D
102
}
100
AcDbEntity
  8
0
100
AcDbLine
 10
186.720554
 20
141.273717
 30
0.0
 11
192.140666
 21
141.273717
 31
0.0
  0
ELLIPSE
  5
235C
102
{ACAD_REACTORS
330
235E
102
}
100
AcDbEntity
  8
0
100
AcDbEllipse
 10
193.089934
 20
137.784492
 30
0.0
 11
0.0000000000000101
 21
1.50196438110342
 31
0.0
210
0.0
220
0.0
230
1.0
 40
0.93822
 41
0.0
 42
6.283185307179586
  0
HATCH
  5
235D
100
AcDbEntity
  8
15
100
AcDbHatch
 10
0.0
 20
0.0
 30
0.0
210
0.0
220
0.0
230
1.0
  2
SOLID
 70
     1
 71
     1
 91
        1
 92
        7
 72
     1
 73
     1
 93
       18
 10
188.8375730208995
 20
137.1467721247929
 42
-0.4142135623731498
 10
188.1512930208995
 20
136.4604921247928
 42
0.0
 10
187.930279107454
 20
136.4604921247928
 42
0.0
 10
187.930279107454
 20
136.3173430002823
 42
0.0
 10
190.9309412279888
 20
136.3173430002823
 42
0.0
 10
190.9309412279888
 20
136.4604921247928
 42
0.0
 10
190.7099273145432
 20
136.4604921247928
 42
-0.4142135623731559
 10
190.0236473145431
 20
137.1467721247927
 42
0.0
 10
190.0236473145431
 20
140.9237966345029
 42
0.0
 10
190.6276996792925
 20
140.9237966345029
 42
-0.4138200196738106
 10
191.9974084425353
 20
139.5559272855149
 42
0.0
 10
192.1406664459161
 20
139.5559272855149
 42
0.0
 10
192.1406664459164
 20
141.2737167796415
 42
0.0
 10
186.7205538895264
 20
141.2737167796415
 42
0.0
 10
186.7205538895264
 20
139.5559272855149
 42
0.0
 10
186.8638118929076
 20
139.5559272855149
 42
-0.4138200196737956
 10
188.2335206561502
 20
140.9237966345029
 42
0.0
 10
188.8375730208995
 20
140.9237966345029
 42
0.0
 97
       18
330
2376
330
235A
330
2358
330
2380
330
235B
330
2369
330
236A
330
2368
330
235F
330
236C
330
2360
330
2367
330
2366
330
2361
330
2373
330
2374
330
236D
330
236B
 75
     0
 76
     1
 47
0.006025
 98
       28
 10
189.324379
 20
140.502781
 10
194.02577
 20
138.524738
 10
196.61016
 20
138.332428
 10
196.61016
 20
138.332428
 10
196.61016
 20
138.332428
 10
196.61016
 20
138.332428
 10
196.61016
 20
138.332428
 10
196.61016
 20
138.332428
 10
196.61016
 20
138.332428
 10
196.61016
 20
138.332428
 10
196.61016
 20
138.332428
 10
196.61016
 20
138.332428
 10
196.61016
 20
138.332428
 10
196.61016
 20
138.332428
 10
196.61016
 20
138.332428
 10
197.792382
 20
138.442319
 10
197.792382
 20
138.442319
 10
197.792382
 20
138.442319
 10
197.792382
 20
138.442319
 10
197.792382
 20
138.442319
 10
197.792382
 20
138.442319
 10
197.792382
 20
138.442319
 10
197.792382
 20
138.442319
 10
197.792382
 20
138.442319
 10
197.792382
 20
138.442319
 10
197.792382
 20
138.442319
 10
197.792382
 20
138.442319
 10
197.792382
 20
138.442319
  0
HATCH
  5
235E
100
AcDbEntity
  8
15
100
AcDbHatch
 10
0.0
 20
0.0
 30
0.0
210
0.0
220
0.0
230
1.0
  2
SOLID
 70
     1
 71
     1
 91
        2
 92
        5
 93
        1
 72
     3
 10
193.089934
 20
137.784492
 11
0.0
 21
1.501964
 40
0.93822
 50
0.0
 51
360.0
 73
     1
 97
        1
330
235C
 92
       20
 93
        1
 72
     3
 10
193.089934
 20
137.79305
 11
0.0
 21
1.347917
 40
0.683214
 50
0.0
 51
360.0
 73
     1
 97
        1
330
237A
 75
     0
 76
     1
 47
0.001462
 98
        2
 10
194.051162
 20
138.513548
 10
194.051162
 20
138.513548
  0
LINE
  5
235F
102
{ACAD_REACTORS
330
235D
102
}
100
AcDbEntity
  8
0
100
AcDbLine
 10
188.233521
 20
140.923797
 30
0.0
 11
188.837573
 21
140.923797
 31
0.0
  0
ARC
  5
2360
102
{ACAD_REACTORS
330
235D
102
}
100
AcDbEntity
  8
0
100
AcDbCircle
 10
188.151293
 20
137.146772
 30
0.0
 40
0.68628
100
AcDbArc
 50
270.0
 51
0.0
  0
LINE
  5
2361
102
{ACAD_REACTORS
330
235D
102
}
100
AcDbEntity
  8
15
100
AcDbLine
 10
187.930279
 20
136.317343
 30
0.0
 11
190.930941
 21
136.317343
 31
0.0
  0
LWPOLYLINE
  5
2362
100
AcDbEntity
  8
15
100
AcDbPolyline
 90
        2
 70
     0
 43
0.015
 10
186.384153
 20
134.66903
 10
186.837072
 20
134.66903
  0
LWPOLYLINE
  5
2363
100
AcDbEntity
  8
15
100
AcDbPolyline
 90
        2
 70
     0
 43
0.015
 10
186.610613
 20
135.774976
 10
186.610613
 20
134.66903
  0
LWPOLYLINE
  5
2364
100
AcDbEntity
  8
15
100
AcDbPolyline
 90
        2
 70
     0
 43
0.015
 10
186.384153
 20
135.774976
 10
186.837072
 20
135.774976
  0
LWPOLYLINE
  5
2365
100
AcDbEntity
  8
15
100
AcDbPolyline
 90
        4
 70
     0
 43
0.015
 10
187.942207
 20
135.774976
 10
187.942207
 20
134.66903
 10
187.094829
 20
135.774976
 10
187.094829
 20
134.66903
  0
LINE
  5
2366
102
{ACAD_REACTORS
330
235D
102
}
100
AcDbEntity
  8
15
100
AcDbLine
 10
187.930279
 20
136.460492
 30
0.0
 11
187.930279
 21
136.317343
 31
0.0
  0
LINE
  5
2367
102
{ACAD_REACTORS
330
235D
102
}
100
AcDbEntity
  8
15
100
AcDbLine
 10
187.930279
 20
136.460492
 30
0.0
 11
188.151293
 21
136.460492
 31
0.0
  0
ARC
  5
2368
102
{ACAD_REACTORS
330
235D
102
}
100
AcDbEntity
  8
0
100
AcDbCircle
 10
188.233521
 20
139.554087
 30
0.0
 40
1.36971
100
AcDbArc
 50
90.0
 51
179.923004
  0
LINE
  5
2369
102
{ACAD_REACTORS
330
235D
102
}
100
AcDbEntity
  8
0
100
AcDbLine
 10
186.720554
 20
139.555927
 30
0.0
 11
186.720554
 21
141.273717
 31
0.0
  0
LINE
  5
236A
102
{ACAD_REACTORS
330
235D
102
}
100
AcDbEntity
  8
0
100
AcDbLine
 10
186.720554
 20
139.555927
 30
0.0
 11
186.863811
 21
139.555927
 31
0.0
  0
LINE
  5
236B
102
{ACAD_REACTORS
330
235D
102
}
100
AcDbEntity
  8
0
100
AcDbLine
 10
190.023647
 20
137.146772
 30
0.0
 11
190.023647
 21
140.923797
 31
0.0
  0
LINE
  5
236C
102
{ACAD_REACTORS
330
235D
102
}
100
AcDbEntity
  8
0
100
AcDbLine
 10
188.837573
 20
137.146772
 30
0.0
 11
188.837573
 21
140.923797
 31
0.0
  0
ARC
  5
236D
102
{ACAD_REACTORS
330
235D
102
}
100
AcDbEntity
  8
0
100
AcDbCircle
 10
190.709927
 20
137.146772
 30
0.0
 40
0.68628
100
AcDbArc
 50
180.0
 51
270.0
  0
SPLINE
  5
236E
100
AcDbEntity
  8
15
100
AcDbSpline
210
0.0
220
0.0
230
1.0
 70
    11
 71
     3
 72
    24
 73
    20
 74
     0
 42
0.0000001
 43
0.0000001
 40
0.0
 40
0.0
 40
0.0
 40
0.0
 40
0.474866629778075
 40
0.474866629778075
 40
1.277791044886493
 40
1.277791044886493
 40
2.080715459994911
 40
2.080715459994911
 40
2.883639875103329
 40
2.883639875103329
 40
3.686564290211747
 40
3.686564290211747
 40
4.489488705320165
 40
4.489488705320165
 40
5.292413120428583
 40
5.292413120428583
 40
6.095337535537001
 40
6.095337535537001
 40
6.283185307179586
 40
6.283185307179586
 40
6.283185307179586
 40
6.283185307179586
 10
189.8606844686782
 20
135.7899761005302
 30
0.0
 10
189.7710496344237
 20
135.7899761005302
 30
0.0
 10
189.6814903039449
 20
135.7682336661869
 30
0.0
 10
189.466995591309
 20
135.6576116890587
 30
0.0
 10
189.3623515697988
 20
135.5315637238902
 30
0.0
 10
189.2748223220784
 20
135.2405131076284
 30
0.0
 10
189.2925190010354
 20
135.0774604485171
 30
0.0
 10
189.4404439219681
 20
134.8121174383112
 30
0.0
 10
189.5696864195351
 20
134.7116090671646
 30
0.0
 10
189.8627694285377
 20
134.634039718891
 30
0.0
 10
190.0246355355784
 20
134.6575054106077
 30
0.0
 10
190.2838257432184
 20
134.8151265506874
 30
0.0
 10
190.3794093834824
 20
134.9482152715083
 30
0.0
 10
190.4464000670849
 20
135.2446990561602
 30
0.0
 10
190.4173619811508
 20
135.4061087729962
 30
0.0
 10
190.2512699172041
 20
135.6604093333959
 30
0.0
 10
190.1153238000218
 20
135.7515907184373
 30
0.0
 10
189.9315992372543
 20
135.7866254115162
 30
0.0
 10
189.8961422221197
 20
135.7899761005302
 30
0.0
 10
189.8606844686782
 20
135.7899761005302
 30
0.0
  0
ELLIPSE
  5
236F
100
AcDbEntity
  8
15
100
AcDbEllipse
 10
189.860684
 20
135.222003
 30
0.0
 11
0.0
 21
0.5529732610634131
 31
0.0
210
0.0
220
0.0
230
1.0
 40
0.996841
 41
0.0
 42
6.283185307179586
  0
HATCH
  5
2370
100
AcDbEntity
  8
15
100
AcDbHatch
 10
0.0
 20
0.0
 30
0.0
210
0.0
220
0.0
230
1.0
  2
SOLID
 70
     1
 71
     0
 91
        2
 92
        5
 93
        1
 72
     4
 94
        3
 73
     0
 74
     0
 95
       24
 96
       20
 40
0.0
 40
0.0
 40
0.0
 40
0.0
 40
0.474867
 40
0.474867
 40
1.277791
 40
1.277791
 40
2.080715
 40
2.080715
 40
2.88364
 40
2.88364
 40
3.686564
 40
3.686564
 40
4.489489
 40
4.489489
 40
5.292413
 40
5.292413
 40
6.095338
 40
6.095338
 40
6.283185
 40
6.283185
 40
6.283185
 40
6.283185
 10
189.860684
 20
135.789976
 10
189.77105
 20
135.789976
 10
189.68149
 20
135.768234
 10
189.466996
 20
135.657612
 10
189.362352
 20
135.531564
 10
189.274822
 20
135.240513
 10
189.292519
 20
135.07746
 10
189.440444
 20
134.812117
 10
189.569686
 20
134.711609
 10
189.862769
 20
134.63404
 10
190.024636
 20
134.657505
 10
190.283826
 20
134.815127
 10
190.379409
 20
134.948215
 10
190.4464
 20
135.244699
 10
190.417362
 20
135.406109
 10
190.25127
 20
135.660409
 10
190.115324
 20
135.751591
 10
189.931599
 20
135.786625
 10
189.896142
 20
135.789976
 10
189.860684
 20
135.789976
 97
        0
 92
       20
 93
        1
 72
     3
 10
189.860684
 20
135.222003
 11
0.0
 21
0.552973
 40
0.996841
 50
0.0
 51
360.0
 73
     1
 97
        0
 75
     0
 76
     1
 47
0.002338
 98
        2
 10
189.971595
 20
135.770721
 10
189.971595
 20
135.770721
  0
LWPOLYLINE
  5
2371
100
AcDbEntity
  8
15
100
AcDbPolyline
 90
        2
 70
     0
 43
0.015
 10
190.99084
 20
135.207905
 10
191.429901
 20
134.66903
  0
LWPOLYLINE
  5
2372
100
AcDbEntity
  8
15
100
AcDbPolyline
 90
        5
 70
     0
 43
0.015
 10
190.688132
 20
135.207905
 10
191.070463
 20
135.207905
 42
1.0
 10
191.070463
 20
135.774976
 10
190.688132
 20
135.774976
 10
190.688132
 20
134.66903
  0
LINE
  5
2373
102
{ACAD_REACTORS
330
235D
102
}
100
AcDbEntity
  8
15
100
AcDbLine
 10
190.930941
 20
136.460492
 30
0.0
 11
190.930941
 21
136.317343
 31
0.0
  0
LINE
  5
2374
102
{ACAD_REACTORS
330
235D
102
}
100
AcDbEntity
  8
15
100
AcDbLine
 10
190.930941
 20
136.460492
 30
0.0
 11
190.709927
 21
136.460492
 31
0.0
  0
LINE
  5
2375
100
AcDbEntity
  8
15
100
AcDbLine
 10
191.856426
 20
134.603967
 30
0.0
 11
191.856426
 21
134.831805
 31
0.0
  0
LINE
  5
2376
102
{ACAD_REACTORS
330
235D
102
}
100
AcDbEntity
  8
0
100
AcDbLine
 10
190.6277
 20
140.923797
 30
0.0
 11
190.023647
 21
140.923797
 31
0.0
  0
LWPOLYLINE
  5
2377
102
{ACAD_REACTORS
330
2318
102
}
100
AcDbEntity
  8
0
100
AcDbPolyline
 90
       17
 70
     0
 43
0.0
 10
196.045305
 20
137.640794
 42
-0.060912
 10
195.549398
 20
137.701887
 10
195.549398
 20
136.709009
 42
0.414214
 10
195.832688
 20
136.425719
 10
195.963786
 20
136.425719
 10
195.963786
 20
136.351049
 10
194.734208
 20
136.351049
 10
194.734208
 20
136.425719
 10
194.865306
 20
136.425719
 42
0.414214
 10
195.148596
 20
136.709009
 10
195.148596
 20
138.869193
 42
0.414214
 10
194.865306
 20
139.152483
 10
194.736338
 20
139.152483
 10
194.736338
 20
139.23155
 10
196.053314
 20
139.23155
 42
-0.395102
 10
196.921633
 20
138.428218
 42
-0.42915
 10
196.045305
 20
137.640794
  0
LWPOLYLINE
  5
2378
100
AcDbEntity
  8
15
100
AcDbPolyline
 90
        2
 70
     0
 43
0.015
 10
195.222553
 20
135.072285
 10
195.77038
 20
135.072285
  0
LWPOLYLINE
  5
2379
100
AcDbEntity
  8
15
100
AcDbPolyline
 90
        3
 70
     0
 43
0.015
 10
195.93031
 20
134.66903
 10
195.491694
 20
135.774976
 10
195.0681
 20
134.66903
  0
ELLIPSE
  5
237A
102
{ACAD_REACTORS
330
235E
102
}
100
AcDbEntity
  8
0
100
AcDbEllipse
 10
193.089934
 20
137.79305
 30
0.0
 11
0.0000000000000101
 21
1.347916806792966
 31
0.0
210
0.0
220
0.0
230
1.0
 40
0.683214
 41
0.0
 42
6.283185307179586
  0
SPLINE
  5
237B
100
AcDbEntity
  8
15
100
AcDbSpline
210
0.0
220
0.0
230
1.0
 70
    11
 71
     3
 72
    24
 73
    20
 74
     0
 42
0.0000001
 43
0.0000001
 40
0.0
 40
0.0
 40
0.0
 40
0.0
 40
0.474866629778075
 40
0.474866629778075
 40
1.277791044886493
 40
1.277791044886493
 40
2.080715459994911
 40
2.080715459994911
 40
2.883639875103329
 40
2.883639875103329
 40
3.686564290211747
 40
3.686564290211747
 40
4.489488705320165
 40
4.489488705320165
 40
5.292413120428583
 40
5.292413120428583
 40
6.095337535537001
 40
6.095337535537001
 40
6.283185307179586
 40
6.283185307179586
 40
6.283185307179586
 40
6.283185307179586
 10
193.1513752289432
 20
135.7899761005302
 30
0.0
 10
193.0617403946887
 20
135.7899761005302
 30
0.0
 10
192.9721810642099
 20
135.7682336661869
 30
0.0
 10
192.757686351574
 20
135.6576116890587
 30
0.0
 10
192.6530423300638
 20
135.5315637238902
 30
0.0
 10
192.5655130823434
 20
135.2405131076284
 30
0.0
 10
192.5832097613004
 20
135.0774604485171
 30
0.0
 10
192.7311346822331
 20
134.8121174383112
 30
0.0
 10
192.8603771798001
 20
134.7116090671646
 30
0.0
 10
193.1534601888027
 20
134.634039718891
 30
0.0
 10
193.3153262958434
 20
134.6575054106077
 30
0.0
 10
193.5745165034834
 20
134.8151265506874
 30
0.0
 10
193.6701001437473
 20
134.9482152715083
 30
0.0
 10
193.7370908273499
 20
135.2446990561602
 30
0.0
 10
193.7080527414158
 20
135.4061087729962
 30
0.0
 10
193.5419606774691
 20
135.6604093333959
 30
0.0
 10
193.4060145602868
 20
135.7515907184373
 30
0.0
 10
193.2222899975193
 20
135.7866254115162
 30
0.0
 10
193.1868329823847
 20
135.7899761005302
 30
0.0
 10
193.1513752289432
 20
135.7899761005302
 30
0.0
  0
ELLIPSE
  5
237C
100
AcDbEntity
  8
15
100
AcDbEllipse
 10
193.151375
 20
135.222003
 30
0.0
 11
0.0
 21
0.5529732610634131
 31
0.0
210
0.0
220
0.0
230
1.0
 40
0.996841
 41
0.0
 42
6.283185307179586
  0
HATCH
  5
237D
100
AcDbEntity
  8
15
100
AcDbHatch
 10
0.0
 20
0.0
 30
0.0
210
0.0
220
0.0
230
1.0
  2
SOLID
 70
     1
 71
     0
 91
        2
 92
        5
 93
        1
 72
     4
 94
        3
 73
     0
 74
     0
 95
       24
 96
       20
 40
0.0
 40
0.0
 40
0.0
 40
0.0
 40
0.474867
 40
0.474867
 40
1.277791
 40
1.277791
 40
2.080715
 40
2.080715
 40
2.88364
 40
2.88364
 40
3.686564
 40
3.686564
 40
4.489489
 40
4.489489
 40
5.292413
 40
5.292413
 40
6.095338
 40
6.095338
 40
6.283185
 40
6.283185
 40
6.283185
 40
6.283185
 10
193.151375
 20
135.789976
 10
193.06174
 20
135.789976
 10
192.972181
 20
135.768234
 10
192.757686
 20
135.657612
 10
192.653042
 20
135.531564
 10
192.565513
 20
135.240513
 10
192.58321
 20
135.07746
 10
192.731135
 20
134.812117
 10
192.860377
 20
134.711609
 10
193.15346
 20
134.63404
 10
193.315326
 20
134.657505
 10
193.574517
 20
134.815127
 10
193.6701
 20
134.948215
 10
193.737091
 20
135.244699
 10
193.708053
 20
135.406109
 10
193.541961
 20
135.660409
 10
193.406015
 20
135.751591
 10
193.22229
 20
135.786625
 10
193.186833
 20
135.789976
 10
193.151375
 20
135.789976
 97
        0
 92
       20
 93
        1
 72
     3
 10
193.151375
 20
135.222003
 11
0.0
 21
0.552973
 40
0.996841
 50
0.0
 51
360.0
 73
     1
 97
        0
 75
     0
 76
     1
 47
0.003313
 98
        2
 10
193.219935
 20
135.776684
 10
193.219935
 20
135.776684
  0
LWPOLYLINE
  5
237E
100
AcDbEntity
  8
15
100
AcDbPolyline
 90
        2
 70
     0
 43
0.015
 10
194.325498
 20
135.207905
 10
194.764558
 20
134.66903
  0
LWPOLYLINE
  5
237F
100
AcDbEntity
  8
15
100
AcDbPolyline
 90
        5
 70
     0
 43
0.015
 10
194.022789
 20
135.207905
 10
194.40512
 20
135.207905
 42
1.0
 10
194.40512
 20
135.774976
 10
194.022789
 20
135.774976
 10
194.022789
 20
134.66903
  0
LINE
  5
2380
102
{ACAD_REACTORS
330
235D
102
}
100
AcDbEntity
  8
15
100
AcDbLine
 10
192.140666
 20
139.555927
 30
0.0
 11
192.140666
 21
141.273717
 31
0.0
  0
LWPOLYLINE
  5
2381
100
AcDbEntity
  8
15
100
AcDbPolyline
 90
        2
 70
     0
 43
0.015
 10
192.51587
 20
140.747074
 10
192.51587
 20
139.939776
  0
LWPOLYLINE
  5
2382
100
AcDbEntity
  8
15
100
AcDbPolyline
 90
        2
 70
     0
 43
0.015
 10
192.391591
 20
139.939776
 10
192.640148
 20
139.939776
  0
LWPOLYLINE
  5
2383
100
AcDbEntity
  8
15
100
AcDbPolyline
 90
        3
 70
     0
 43
0.015
 10
192.391591
 20
140.747074
 10
192.51587
 20
140.747074
 10
192.640148
 20
140.747074
  0
LWPOLYLINE
  5
2384
100
AcDbEntity
  8
15
100
AcDbPolyline
 90
        4
 70
     0
 43
0.015
 10
193.434447
 20
140.747074
 10
193.434447
 20
139.939776
 10
192.881087
 20
140.763952
 10
192.881087
 20
139.939776
  0
LWPOLYLINE
  5
2385
100
AcDbEntity
  8
15
100
AcDbPolyline
 90
        4
 70
     1
 43
0.015
 10
193.949376
 20
139.939776
 42
1.0
 10
193.949376
 20
140.747074
 10
193.777531
 20
140.747074
 10
193.777531
 20
139.939776
  0
LWPOLYLINE
  5
2386
100
AcDbEntity
  8
15
100
AcDbPolyline
 90
        4
 70
     0
 43
0.015
 10
195.183066
 20
140.747074
 10
195.183066
 20
140.210922
 42
-1.0
 10
194.640773
 20
140.210922
 10
194.640773
 20
140.747074
  0
LWPOLYLINE
  5
2387
102
{ACAD_REACTORS
330
2318
102
}
100
AcDbEntity
  8
0
100
AcDbPolyline
 90
        3
 70
     1
 43
0.0
 10
195.549398
 20
137.810498
 42
0.543923
 10
196.439313
 20
138.394277
 42
0.528743
 10
195.549398
 20
139.018785
  0
LINE
  5
2388
102
{ACAD_REACTORS
330
2318
102
}
100
AcDbEntity
  8
0
100
AcDbLine
 10
197.968045
 20
139.007873
 30
0.0
 11
197.968045
 21
137.799585
 31
0.0
  0
LINE
  5
2389
102
{ACAD_REACTORS
330
2318
102
}
100
AcDbEntity
  8
0
100
AcDbLine
 10
197.567243
 20
136.698096
 30
0.0
 11
197.567243
 21
138.85828
 31
0.0
  0
LWPOLYLINE
  5
238A
100
AcDbEntity
  8
15
100
AcDbPolyline
 90
        2
 70
     0
 43
0.015
 10
196.155226
 20
135.774976
 10
197.092354
 20
135.774976
  0
LWPOLYLINE
  5
238B
100
AcDbEntity
  8
15
100
AcDbPolyline
 90
        2
 70
     0
 43
0.015
 10
196.62379
 20
135.774976
 10
196.62379
 20
134.66903
  0
LINE
  5
238C
102
{ACAD_REACTORS
330
2318
102
}
100
AcDbEntity
  8
0
100
AcDbLine
 10
197.968045
 20
137.690975
 30
0.0
 11
197.968045
 21
136.698096
 31
0.0
  0
LINE
  5
238D
102
{ACAD_REACTORS
330
2318
102
}
100
AcDbEntity
  8
15
100
AcDbLine
 10
197.152855
 20
136.340137
 30
0.0
 11
198.382433
 21
136.340137
 31
0.0
  0
LWPOLYLINE
  5
238E
100
AcDbEntity
  8
15
100
AcDbPolyline
 90
        4
 70
     0
 43
0.015
 10
198.050346
 20
134.66903
 10
197.336822
 20
134.66903
 10
197.336822
 20
135.774976
 10
198.050346
 20
135.774976
  0
ARC
  5
238F
102
{ACAD_REACTORS
330
2318
102
}
100
AcDbEntity
  8
15
100
AcDbCircle
 10
197.283953
 20
136.698096
 30
0.0
 40
0.28329
100
AcDbArc
 50
270.0
 51
360.0
  0
LINE
  5
2390
102
{ACAD_REACTORS
330
2318
102
}
100
AcDbEntity
  8
15
100
AcDbLine
 10
197.152855
 20
136.414806
 30
0.0
 11
197.283953
 21
136.414806
 31
0.0
  0
LINE
  5
2391
102
{ACAD_REACTORS
330
2318
102
}
100
AcDbEntity
  8
15
100
AcDbLine
 10
197.152855
 20
136.414806
 30
0.0
 11
197.152855
 21
136.340137
 31
0.0
  0
LWPOLYLINE
  5
2392
100
AcDbEntity
  8
15
100
AcDbPolyline
 90
        2
 70
     0
 43
0.015
 10
197.336822
 20
135.222003
 10
197.811323
 20
135.222003
  0
LINE
  5
2393
102
{ACAD_REACTORS
330
2318
102
}
100
AcDbEntity
  8
15
100
AcDbLine
 10
198.251335
 20
136.414806
 30
0.0
 11
198.382433
 21
136.414806
 31
0.0
  0
LINE
  5
2394
102
{ACAD_REACTORS
330
2318
102
}
100
AcDbEntity
  8
15
100
AcDbLine
 10
198.382433
 20
136.414806
 30
0.0
 11
198.382433
 21
136.340137
 31
0.0
  0
ARC
  5
2395
102
{ACAD_REACTORS
330
2318
102
}
100
AcDbEntity
  8
15
100
AcDbCircle
 10
198.251335
 20
136.698096
 30
0.0
 40
0.28329
100
AcDbArc
 50
180.0
 51
270.0
  0
ARC
  5
2396
102
{ACAD_REACTORS
330
2318
102
}
100
AcDbEntity
  8
0
100
AcDbCircle
 10
198.465812
 20
139.688227
 30
0.0
 40
2.058346
100
AcDbArc
 50
256.005504
 51
269.948223
  0
LWPOLYLINE
  5
2397
100
AcDbEntity
  8
15
100
AcDbPolyline
 90
        5
 70
     0
 43
0.015
 10
196.894504
 20
140.339535
 10
197.188151
 20
140.339535
 42
1.0
 10
197.188151
 20
140.747074
 10
196.894504
 20
140.747074
 10
196.894504
 20
139.939776
  0
LWPOLYLINE
  5
2398
100
AcDbEntity
  8
15
100
AcDbPolyline
 90
        2
 70
     0
 43
0.015
 10
196.05982
 20
140.747074
 10
196.723146
 20
140.747074
  0
LWPOLYLINE
  5
2399
100
AcDbEntity
  8
15
100
AcDbPolyline
 90
        6
 70
     0
 43
0.015
 10
195.8803
 20
140.604889
 42
0.563863
 10
195.453948
 20
140.648093
 42
0.446702
 10
195.478292
 20
140.480036
 42
0.017159
 10
195.872487
 20
140.237043
 42
-0.407505
 10
195.91634
 20
140.083836
 42
-0.658901
 10
195.447148
 20
140.106256
  0
LWPOLYLINE
  5
239A
100
AcDbEntity
  8
15
100
AcDbPolyline
 90
        2
 70
     0
 43
0.015
 10
196.391483
 20
140.747074
 10
196.391483
 20
139.939776
  0
LWPOLYLINE
  5
239B
100
AcDbEntity
  8
15
100
AcDbPolyline
 90
        2
 70
     0
 43
0.015
 10
197.640165
 20
139.939776
 10
197.888723
 20
139.939776
  0
LWPOLYLINE
  5
239C
100
AcDbEntity
  8
15
100
AcDbPolyline
 90
        2
 70
     0
 43
0.015
 10
197.640165
 20
140.747074
 10
197.888723
 20
140.747074
  0
LINE
  5
239D
102
{ACAD_REACTORS
330
2318
102
}
100
AcDbEntity
  8
0
100
AcDbLine
 10
197.154985
 20
139.220638
 30
0.0
 11
198.482365
 21
139.220638
 31
0.0
  0
LWPOLYLINE
  5
239E
100
AcDbEntity
  8
15
100
AcDbPolyline
 90
        2
 70
     0
 43
0.015
 10
197.131861
 20
140.339535
 10
197.3879
 20
139.939776
  0
LWPOLYLINE
  5
239F
100
AcDbEntity
  8
15
100
AcDbPolyline
 90
        2
 70
     0
 43
0.015
 10
197.764444
 20
140.747074
 10
197.764444
 20
139.939776
  0
ARC
  5
23A0
102
{ACAD_REACTORS
330
2318
102
}
100
AcDbEntity
  8
0
100
AcDbCircle
 10
197.283953
 20
138.85828
 30
0.0
 40
0.28329
100
AcDbArc
 50
0.0
 51
90.0
  0
LINE
  5
23A1
102
{ACAD_REACTORS
330
2318
102
}
100
AcDbEntity
  8
0
100
AcDbLine
 10
197.154985
 20
139.14157
 30
0.0
 11
197.283953
 21
139.14157
 31
0.0
  0
LINE
  5
23A2
102
{ACAD_REACTORS
330
2318
102
}
100
AcDbEntity
  8
0
100
AcDbLine
 10
197.154985
 20
139.220638
 30
0.0
 11
197.154985
 21
139.14157
 31
0.0
  0
LWPOLYLINE
  5
23A3
100
AcDbEntity
  8
15
100
AcDbPolyline
 90
        4
 70
     0
 43
0.015
 10
198.624545
 20
139.939776
 10
198.138599
 20
139.939776
 10
198.138599
 20
140.747074
 10
198.624545
 20
140.747074
  0
LWPOLYLINE
  5
23A4
100
AcDbEntity
  8
15
100
AcDbPolyline
 90
        2
 70
     0
 43
0.015
 10
198.138599
 20
140.343425
 10
198.518587
 20
140.343425
  0
LWPOLYLINE
  5
23A5
100
AcDbEntity
  8
OBJECT
100
AcDbPolyline
 90
        2
 70
     0
 43
0.0
 10
195.802154
 20
189.254249
 10
195.802154
 20
187.326648
  0
LINE
  5
23A6
100
AcDbEntity
  8
OBJECT
100
AcDbLine
 10
195.802154
 20
186.951648
 30
0.0
 11
195.802154
 21
189.658473
 31
0.0
  0
LINE
  5
23A7
102
{ACAD_REACTORS
330
26B4
102
}
100
AcDbEntity
  8
OBJECT
100
AcDbLine
 10
198.917079
 20
186.951648
 30
0.0
 11
198.917079
 21
183.658473
 31
0.0
  0
ARC
  5
23A8
100
AcDbEntity
  8
OBJECT
100
AcDbCircle
 10
198.718411
 20
184.736598
 30
0.0
 40
0.176332
100
AcDbArc
 50
127.107925
 51
232.892075
  0
ARC
  5
23A9
100
AcDbEntity
  8
OBJECT
100
AcDbCircle
 10
198.740746
 20
184.736598
 30
0.0
 40
0.176332
100
AcDbArc
 50
307.107925
 51
52.892075
  0
LINE
  5
23AA
100
AcDbEntity
  8
OBJECT
100
AcDbLine
 10
198.612026
 20
184.595973
 30
0.0
 11
198.917079
 21
184.595973
 31
0.0
  0
LINE
  5
23AB
100
AcDbEntity
  8
OBJECT
100
AcDbLine
 10
198.612026
 20
185.720973
 30
0.0
 11
198.917079
 21
185.720973
 31
0.0
  0
LINE
  5
23AC
100
AcDbEntity
  8
OBJECT
100
AcDbLine
 10
198.542079
 20
184.736598
 30
0.0
 11
198.542079
 21
185.580348
 31
0.0
  0
ARC
  5
23AD
100
AcDbEntity
  8
OBJECT
100
AcDbCircle
 10
199.142486
 20
185.158473
 30
0.0
 40
0.600407
100
AcDbArc
 50
152.067427
 51
207.932573
  0
ARC
  5
23AE
100
AcDbEntity
  8
OBJECT
100
AcDbCircle
 10
198.718411
 20
185.580348
 30
0.0
 40
0.176332
100
AcDbArc
 50
127.107925
 51
232.892075
  0
ARC
  5
23AF
100
AcDbEntity
  8
OBJECT
100
AcDbCircle
 10
198.316671
 20
185.158473
 30
0.0
 40
0.600407
100
AcDbArc
 50
332.067427
 51
27.932573
  0
ARC
  5
23B0
100
AcDbEntity
  8
OBJECT
100
AcDbCircle
 10
198.740746
 20
185.580348
 30
0.0
 40
0.176332
100
AcDbArc
 50
307.107925
 51
52.892075
  0
LINE
  5
23B1
100
AcDbEntity
  8
OBJECT
100
AcDbLine
 10
196.972818
 20
187.712953
 30
0.0
 11
197.550318
 21
187.712953
 31
0.0
  0
LINE
  5
23B2
100
AcDbEntity
  8
OBJECT
100
AcDbLine
 10
196.972818
 20
188.702953
 30
0.0
 11
197.550318
 21
188.702953
 31
0.0
  0
LINE
  5
23B3
100
AcDbEntity
  8
15
100
AcDbLine
 10
197.513383
 20
189.658473
 30
0.0
 11
197.513383
 21
188.702953
 31
0.0
  0
LINE
  5
23B4
100
AcDbEntity
  8
OBJECT
100
AcDbLine
 10
197.346381
 20
188.702953
 30
0.0
 11
197.346381
 21
189.658473
 31
0.0
  0
LINE
  5
23B5
100
AcDbEntity
  8
OBJECT
100
AcDbLine
 10
196.972818
 20
188.391078
 30
0.0
 11
196.597818
 21
188.391078
 31
0.0
  0
LINE
  5
23B6
100
AcDbEntity
  8
OBJECT
100
AcDbLine
 10
196.972818
 20
188.024828
 30
0.0
 11
196.597818
 21
188.024828
 31
0.0
  0
LINE
  5
23B7
100
AcDbEntity
  8
OBJECT
100
AcDbLine
 10
196.972818
 20
187.787953
 30
0.0
 11
196.597818
 21
187.787953
 31
0.0
  0
LINE
  5
23B8
100
AcDbEntity
  8
OBJECT
100
AcDbLine
 10
196.972818
 20
188.627953
 30
0.0
 11
196.597818
 21
188.627953
 31
0.0
  0
LINE
  5
23B9
100
AcDbEntity
  8
OBJECT
100
AcDbLine
 10
196.597818
 20
187.787953
 30
0.0
 11
196.597818
 21
188.627953
 31
0.0
  0
LINE
  5
23BA
100
AcDbEntity
  8
15
100
AcDbLine
 10
197.513383
 20
187.712953
 30
0.0
 11
197.513383
 21
187.326648
 31
0.0
  0
LINE
  5
23BB
100
AcDbEntity
  8
15
100
AcDbLine
 10
197.346381
 20
187.326648
 30
0.0
 11
197.346381
 21
187.712953
 31
0.0
  0
LINE
  5
23BC
100
AcDbEntity
  8
OBJECT
100
AcDbLine
 10
196.972818
 20
187.712953
 30
0.0
 11
196.972818
 21
188.702953
 31
0.0
  0
LINE
  5
23BD
100
AcDbEntity
  8
15
100
AcDbLine
 10
199.200883
 20
189.658473
 30
0.0
 11
199.200883
 21
188.442403
 31
0.0
  0
LINE
  5
23BE
100
AcDbEntity
  8
15
100
AcDbLine
 10
197.700883
 20
189.658473
 30
0.0
 11
197.700883
 21
188.442403
 31
0.0
  0
LINE
  5
23BF
100
AcDbEntity
  8
15
100
AcDbLine
 10
197.888383
 20
189.658473
 30
0.0
 11
197.888383
 21
188.442403
 31
0.0
  0
LINE
  5
23C0
100
AcDbEntity
  8
15
100
AcDbLine
 10
198.075883
 20
189.658473
 30
0.0
 11
198.075883
 21
188.442403
 31
0.0
  0
LINE
  5
23C1
100
AcDbEntity
  8
15
100
AcDbLine
 10
198.263383
 20
189.658473
 30
0.0
 11
198.263383
 21
188.442403
 31
0.0
  0
LINE
  5
23C2
100
AcDbEntity
  8
15
100
AcDbLine
 10
198.450883
 20
189.658473
 30
0.0
 11
198.450883
 21
188.442403
 31
0.0
  0
LINE
  5
23C3
100
AcDbEntity
  8
15
100
AcDbLine
 10
198.638383
 20
189.658473
 30
0.0
 11
198.638383
 21
188.442403
 31
0.0
  0
LINE
  5
23C4
100
AcDbEntity
  8
15
100
AcDbLine
 10
198.825883
 20
189.658473
 30
0.0
 11
198.825883
 21
188.442403
 31
0.0
  0
LINE
  5
23C5
100
AcDbEntity
  8
15
100
AcDbLine
 10
199.013383
 20
189.658473
 30
0.0
 11
199.013383
 21
188.442403
 31
0.0
  0
LINE
  5
23C6
100
AcDbEntity
  8
15
100
AcDbLine
 10
197.700883
 20
187.973503
 30
0.0
 11
197.700883
 21
187.326648
 31
0.0
  0
LINE
  5
23C7
100
AcDbEntity
  8
15
100
AcDbLine
 10
197.888383
 20
187.973503
 30
0.0
 11
197.888383
 21
187.326648
 31
0.0
  0
LINE
  5
23C8
100
AcDbEntity
  8
15
100
AcDbLine
 10
198.075883
 20
187.973503
 30
0.0
 11
198.075883
 21
187.326648
 31
0.0
  0
LINE
  5
23C9
100
AcDbEntity
  8
15
100
AcDbLine
 10
198.263383
 20
187.973503
 30
0.0
 11
198.263383
 21
187.326648
 31
0.0
  0
LINE
  5
23CA
100
AcDbEntity
  8
15
100
AcDbLine
 10
197.550318
 20
187.712953
 30
0.0
 11
197.550318
 21
187.973503
 31
0.0
  0
LINE
  5
23CB
100
AcDbEntity
  8
15
100
AcDbLine
 10
197.550318
 20
188.442403
 30
0.0
 11
197.550318
 21
188.702953
 31
0.0
  0
LINE
  5
23CC
100
AcDbEntity
  8
15
100
AcDbLine
 10
199.200883
 20
187.973503
 30
0.0
 11
199.200883
 21
187.326648
 31
0.0
  0
LINE
  5
23CD
100
AcDbEntity
  8
15
100
AcDbLine
 10
198.450883
 20
187.973503
 30
0.0
 11
198.450883
 21
187.326648
 31
0.0
  0
LINE
  5
23CE
100
AcDbEntity
  8
15
100
AcDbLine
 10
198.638383
 20
187.973503
 30
0.0
 11
198.638383
 21
187.326648
 31
0.0
  0
LINE
  5
23CF
100
AcDbEntity
  8
15
100
AcDbLine
 10
198.825883
 20
187.973503
 30
0.0
 11
198.825883
 21
187.326648
 31
0.0
  0
LINE
  5
23D0
100
AcDbEntity
  8
15
100
AcDbLine
 10
199.013383
 20
187.973503
 30
0.0
 11
199.013383
 21
187.326648
 31
0.0
  0
TEXT
  5
23D4
100
AcDbEntity
  8
BORDER
 62
     6
100
AcDbText
 10
208.992759
 20
138.069586
 30
0.0
 40
0.615476
  1
-
  7
ROMANS
100
AcDbText
  0
TEXT
  5
23D5
100
AcDbEntity
  8
BORDER
 62
     6
100
AcDbText
 10
209.765515
 20
141.201849
 30
0.0
 40
0.615476
  1
LINKSEAL
  7
ROMANS
100
AcDbText
  0
TEXT
  5
23D6
100
AcDbEntity
  8
BORDER
 62
     6
100
AcDbText
 10
203.616882
 20
134.395239
 30
0.0
 40
0.471865
  1
Phone: 800/354-4534  Fax: 219/223-6106
  7
ROMANS
100
AcDbText
  0
TEXT
  5
23D7
100
AcDbEntity
  8
BORDER
 62
     6
100
AcDbText
 10
207.196729
 20
135.527182
 30
0.0
 40
0.566238
  1
Rochester, IN  46975
  7
ROMANS
100
AcDbText
  0
LINE
  5
23D8
100
AcDbEntity
  8
BORDER
100
AcDbLine
 10
203.449011
 20
139.379976
 30
0.0
 11
220.695455
 21
139.379976
 31
0.0
  0
LWPOLYLINE
  5
23D9
100
AcDbEntity
  8
BORDER
 62
     5
100
AcDbPolyline
 90
        2
 70
     0
 43
0.565738
 10
201.186058
 20
134.072658
 10
201.186058
 20
140.861516
  0
LWPOLYLINE
  5
23DA
100
AcDbEntity
  8
BORDER
 62
     5
100
AcDbPolyline
 90
        2
 70
     0
 43
0.565738
 10
202.317535
 20
140.861516
 10
202.317535
 20
134.072658
  0
LINE
  5
23DB
100
AcDbEntity
  8
BORDER
100
AcDbLine
 10
203.449011
 20
134.072658
 30
0.0
 11
203.449011
 21
136.654287
 31
0.0
  0
TEXT
  5
23DC
100
AcDbEntity
  8
BORDER
 62
     6
100
AcDbText
 10
203.705886
 20
138.504262
 30
0.0
 40
0.553928
  1
Reference:
  7
ROMANS
100
AcDbText
  0
LWPOLYLINE
  5
23DD
100
AcDbEntity
  8
BORDER
 62
     5
100
AcDbPolyline
 90
        2
 70
     0
 43
0.565738
 10
204.580488
 20
143.124469
 42
0.414214
 10
202.317535
 20
140.861516
 42
-0.560527
  0
LWPOLYLINE
  5
23DE
100
AcDbEntity
  8
15
100
AcDbPolyline
 90
        6
 70
     0
 43
0.015
 10
199.238354
 20
140.604889
 42
0.563863
 10
198.812003
 20
140.648093
 42
0.446702
 10
198.836347
 20
140.480036
 42
0.017159
 10
199.230542
 20
140.237043
 42
-0.407505
 10
199.274395
 20
140.083836
 42
-0.658901
 10
198.805203
 20
140.106256
  0
LINE
  5
23DF
100
AcDbEntity
  8
BORDER
100
AcDbLine
 10
203.449011
 20
137.467087
 30
0.0
 11
203.449011
 21
140.861516
 31
0.0
  0
ARC
  5
23E0
100
AcDbEntity
  8
BORDER
100
AcDbCircle
 10
204.580488
 20
140.861516
 30
0.0
 40
1.131476
100
AcDbArc
 50
90.0
 51
180.0
  0
LINE
  5
23E1
100
AcDbEntity
  8
BORDER
100
AcDbLine
 10
220.695455
 20
134.072658
 30
0.0
 11
220.695455
 21
136.654287
 31
0.0
  0
TEXT
  5
23E2
100
AcDbEntity
  8
BORDER
 62
     6
100
AcDbText
 10
221.021517
 20
134.86129
 30
0.0
 40
0.512896
  1
Prior To:
  7
ROMANS
100
AcDbText
  0
TEXT
  5
23E3
100
AcDbEntity
  8
BORDER
 62
     6
100
AcDbText
 10
220.985343
 20
139.038916
 30
0.0
 40
0.512896
  1
Appv'd By:
  7
ROMANS
100
AcDbText
  0
TEXT
  5
23E4
100
AcDbEntity
  8
BORDER
 62
     6
100
AcDbText
 10
220.985343
 20
140.165255
 30
0.0
 40
0.512896
  1
Drawn By:
  7
ROMANS
100
AcDbText
  0
LINE
  5
23E5
100
AcDbEntity
  8
BORDER
100
AcDbLine
 10
220.695455
 20
137.467087
 30
0.0
 11
220.695455
 21
141.992993
 31
0.0
  0
TEXT
  5
23EA
100
AcDbEntity
  8
DIM
100
AcDbText
 10
209.48969
 20
185.443808
 30
0.0
 40
0.75
  1
LINKSEALS 
  7
ROMANS
 11
209.48969
 21
185.818808
 31
0.0
100
AcDbText
 73
     2
  0
TEXT
  5
23EB
100
AcDbEntity
  8
DIM
100
AcDbText
 10
211.342822
 20
189.610266
 30
0.0
 40
0.75
  1
PIPE
  7
ROMANS
 11
211.342822
 21
189.985266
 31
0.0
100
AcDbText
 73
     2
  0
LEADER
  5
23F9
100
AcDbEntity
  8
DIM
100
AcDbLeader
  3
STANDARD
 76
     2
 10
200.566249
 20
187.832862
 30
0.0
 10
208.22969
 20
185.818808
 30
0.0
 77
   256
1001
ACAD
1000
DSTYLE
1002
{
1070
   340
1005
26
1070
   287
1070
     5
1070
    41
1040
0.75
1002
}
  0
LINE
  5
23FA
102
{ACAD_REACTORS
330
26CD
102
}
100
AcDbEntity
  8
OBJECT
100
AcDbLine
 10
200.042079
 20
184.877223
 30
0.0
 11
200.042079
 21
179.945604
 31
0.0
  0
LINE
  5
23FB
102
{ACAD_REACTORS
330
26CD
102
}
100
AcDbEntity
  8
OBJECT
100
AcDbLine
 10
199.292079
 20
183.658473
 30
0.0
 11
199.292079
 21
179.945604
 31
0.0
  0
LINE
  5
23FC
102
{ACAD_REACTORS
330
26CD
102
}
100
AcDbEntity
  8
OBJECT
100
AcDbLine
 10
199.640766
 20
179.837042
 30
0.0
 11
200.042079
 21
179.945604
 31
0.0
  0
LINE
  5
23FD
102
{ACAD_REACTORS
330
26CD
102
}
100
AcDbEntity
  8
OBJECT
100
AcDbLine
 10
199.292079
 20
179.945604
 30
0.0
 11
199.640766
 21
179.837042
 31
0.0
  0
LINE
  5
23FE
102
{ACAD_REACTORS
330
26CD
102
}
100
AcDbEntity
  8
OBJECT
100
AcDbLine
 10
200.042079
 20
186.951648
 30
0.0
 11
200.042079
 21
185.439723
 31
0.0
  0
LINE
  5
23FF
102
{ACAD_REACTORS
330
26B4
330
26CD
102
}
100
AcDbEntity
  8
OBJECT
100
AcDbLine
 10
199.292079
 20
186.951648
 30
0.0
 11
199.292079
 21
183.658473
 31
0.0
  0
ARC
  5
2400
100
AcDbEntity
  8
OBJECT
100
AcDbCircle
 10
200.240746
 20
184.736598
 30
0.0
 40
0.176332
100
AcDbArc
 50
307.107925
 51
52.892075
  0
LINE
  5
2401
100
AcDbEntity
  8
OBJECT
100
AcDbLine
 10
200.417079
 20
184.595973
 30
0.0
 11
200.417079
 21
185.720973
 31
0.0
  0
ARC
  5
2402
100
AcDbEntity
  8
OBJECT
100
AcDbCircle
 10
200.218411
 20
184.736598
 30
0.0
 40
0.176332
100
AcDbArc
 50
127.107925
 51
232.892075
  0
LINE
  5
2403
100
AcDbEntity
  8
OBJECT
100
AcDbLine
 10
200.042079
 20
184.595973
 30
0.0
 11
200.417079
 21
184.595973
 31
0.0
  0
ARC
  5
2404
100
AcDbEntity
  8
OBJECT
100
AcDbCircle
 10
200.240746
 20
185.580348
 30
0.0
 40
0.176332
100
AcDbArc
 50
307.107925
 51
52.892075
  0
ARC
  5
2405
100
AcDbEntity
  8
OBJECT
100
AcDbCircle
 10
199.816671
 20
185.158473
 30
0.0
 40
0.600407
100
AcDbArc
 50
332.067427
 51
27.932573
  0
LINE
  5
2406
102
{ACAD_REACTORS
330
26CD
102
}
100
AcDbEntity
  8
OBJECT
100
AcDbLine
 10
200.042079
 20
184.736598
 30
0.0
 11
200.042079
 21
185.580348
 31
0.0
  0
ARC
  5
2407
100
AcDbEntity
  8
OBJECT
100
AcDbCircle
 10
200.218411
 20
185.580348
 30
0.0
 40
0.176332
100
AcDbArc
 50
127.107925
 51
232.892075
  0
ARC
  5
2408
100
AcDbEntity
  8
OBJECT
100
AcDbCircle
 10
200.642486
 20
185.158473
 30
0.0
 40
0.600407
100
AcDbArc
 50
152.067427
 51
207.932573
  0
LINE
  5
2409
100
AcDbEntity
  8
OBJECT
100
AcDbLine
 10
200.042079
 20
185.720973
 30
0.0
 11
200.417079
 21
185.720973
 31
0.0
  0
LINE
  5
240A
100
AcDbEntity
  8
OBJECT
100
AcDbLine
 10
200.87738
 20
184.877223
 30
0.0
 11
200.87738
 21
185.439723
 31
0.0
  0
LINE
  5
240B
100
AcDbEntity
  8
OBJECT
100
AcDbLine
 10
200.689393
 20
187.712953
 30
0.0
 11
201.266893
 21
187.712953
 31
0.0
  0
LINE
  5
240C
100
AcDbEntity
  8
OBJECT
100
AcDbLine
 10
200.689393
 20
188.702953
 30
0.0
 11
201.266893
 21
188.702953
 31
0.0
  0
LINE
  5
240D
100
AcDbEntity
  8
15
100
AcDbLine
 10
200.700883
 20
189.658473
 30
0.0
 11
200.700883
 21
188.702953
 31
0.0
  0
LINE
  5
240E
100
AcDbEntity
  8
15
100
AcDbLine
 10
200.513383
 20
189.658473
 30
0.0
 11
200.513383
 21
188.442403
 31
0.0
  0
LINE
  5
240F
100
AcDbEntity
  8
15
100
AcDbLine
 10
200.325883
 20
189.658473
 30
0.0
 11
200.325883
 21
188.442403
 31
0.0
  0
LINE
  5
2410
100
AcDbEntity
  8
15
100
AcDbLine
 10
200.138383
 20
189.658473
 30
0.0
 11
200.138383
 21
188.442403
 31
0.0
  0
LINE
  5
2411
100
AcDbEntity
  8
15
100
AcDbLine
 10
199.950883
 20
189.658473
 30
0.0
 11
199.950883
 21
188.442403
 31
0.0
  0
LINE
  5
2412
100
AcDbEntity
  8
15
100
AcDbLine
 10
199.763383
 20
189.658473
 30
0.0
 11
199.763383
 21
188.442403
 31
0.0
  0
LINE
  5
2413
100
AcDbEntity
  8
15
100
AcDbLine
 10
199.575883
 20
189.658473
 30
0.0
 11
199.575883
 21
188.442403
 31
0.0
  0
LINE
  5
2414
100
AcDbEntity
  8
15
100
AcDbLine
 10
199.388383
 20
189.658473
 30
0.0
 11
199.388383
 21
188.442403
 31
0.0
  0
LINE
  5
2415
100
AcDbEntity
  8
15
100
AcDbLine
 10
199.950883
 20
187.973503
 30
0.0
 11
199.950883
 21
187.326648
 31
0.0
  0
LINE
  5
2416
100
AcDbEntity
  8
15
100
AcDbLine
 10
199.763383
 20
187.973503
 30
0.0
 11
199.763383
 21
187.326648
 31
0.0
  0
LINE
  5
2417
100
AcDbEntity
  8
15
100
AcDbLine
 10
199.575883
 20
187.973503
 30
0.0
 11
199.575883
 21
187.326648
 31
0.0
  0
LINE
  5
2418
100
AcDbEntity
  8
15
100
AcDbLine
 10
199.388383
 20
187.973503
 30
0.0
 11
199.388383
 21
187.326648
 31
0.0
  0
LINE
  5
2419
100
AcDbEntity
  8
15
100
AcDbLine
 10
200.700883
 20
187.712953
 30
0.0
 11
200.700883
 21
187.326648
 31
0.0
  0
LINE
  5
241A
100
AcDbEntity
  8
15
100
AcDbLine
 10
200.513383
 20
187.973503
 30
0.0
 11
200.513383
 21
187.326648
 31
0.0
  0
LINE
  5
241B
100
AcDbEntity
  8
15
100
AcDbLine
 10
200.325883
 20
187.973503
 30
0.0
 11
200.325883
 21
187.326648
 31
0.0
  0
LINE
  5
241C
100
AcDbEntity
  8
15
100
AcDbLine
 10
200.138383
 20
187.973503
 30
0.0
 11
200.138383
 21
187.326648
 31
0.0
  0
LINE
  5
241D
100
AcDbEntity
  8
15
100
AcDbLine
 10
200.689393
 20
187.712953
 30
0.0
 11
200.689393
 21
187.973503
 31
0.0
  0
LINE
  5
241E
100
AcDbEntity
  8
15
100
AcDbLine
 10
200.689393
 20
188.442403
 30
0.0
 11
200.689393
 21
188.702953
 31
0.0
  0
LINE
  5
241F
100
AcDbEntity
  8
15
100
AcDbLine
 10
200.888383
 20
189.658473
 30
0.0
 11
200.888383
 21
188.702953
 31
0.0
  0
LINE
  5
2420
100
AcDbEntity
  8
15
100
AcDbLine
 10
200.88931
 20
188.702953
 30
0.0
 11
200.88931
 21
189.254249
 31
0.0
  0
LINE
  5
2421
100
AcDbEntity
  8
OBJECT
100
AcDbLine
 10
202.170318
 20
188.442403
 30
0.0
 11
201.48
 21
188.442403
 31
0.0
  0
LINE
  5
2422
100
AcDbEntity
  8
OBJECT
100
AcDbLine
 10
202.170318
 20
187.973503
 30
0.0
 11
201.48
 21
187.973503
 31
0.0
  0
LINE
  5
2423
100
AcDbEntity
  8
15
100
AcDbLine
 10
200.888383
 20
187.712953
 30
0.0
 11
200.888383
 21
187.326648
 31
0.0
  0
LINE
  5
2424
100
AcDbEntity
  8
OBJECT
100
AcDbLine
 10
201.48
 20
187.787953
 30
0.0
 11
201.105
 21
187.787953
 31
0.0
  0
LINE
  5
2425
100
AcDbEntity
  8
OBJECT
100
AcDbLine
 10
201.266893
 20
187.712953
 30
0.0
 11
201.266893
 21
187.787953
 31
0.0
  0
LINE
  5
2426
100
AcDbEntity
  8
OBJECT
100
AcDbLine
 10
201.48
 20
188.391078
 30
0.0
 11
201.105
 21
188.391078
 31
0.0
  0
LINE
  5
2427
100
AcDbEntity
  8
OBJECT
100
AcDbLine
 10
201.48
 20
188.024828
 30
0.0
 11
201.105
 21
188.024828
 31
0.0
  0
LINE
  5
2428
100
AcDbEntity
  8
OBJECT
100
AcDbLine
 10
201.570318
 20
187.973503
 30
0.0
 11
201.570318
 21
188.442403
 31
0.0
  0
LINE
  5
2429
100
AcDbEntity
  8
15
100
AcDbLine
 10
200.88931
 20
187.326648
 30
0.0
 11
200.88931
 21
187.712953
 31
0.0
  0
LINE
  5
242A
100
AcDbEntity
  8
OBJECT
100
AcDbLine
 10
201.48
 20
188.627953
 30
0.0
 11
201.105
 21
188.627953
 31
0.0
  0
LINE
  5
242B
100
AcDbEntity
  8
OBJECT
100
AcDbLine
 10
201.266893
 20
188.627953
 30
0.0
 11
201.266893
 21
188.702953
 31
0.0
  0
LINE
  5
242C
100
AcDbEntity
  8
OBJECT
100
AcDbLine
 10
201.48
 20
187.787953
 30
0.0
 11
201.48
 21
188.627953
 31
0.0
  0
LINE
  5
242D
100
AcDbEntity
  8
OBJECT
100
AcDbLine
 10
201.105
 20
187.787953
 30
0.0
 11
201.105
 21
188.627953
 31
0.0
  0
LINE
  5
242E
100
AcDbEntity
  8
OBJECT
100
AcDbLine
 10
202.170318
 20
187.973503
 30
0.0
 11
202.170318
 21
188.442403
 31
0.0
  0
LINE
  5
242F
100
AcDbEntity
  8
OBJECT
100
AcDbLine
 10
201.870318
 20
187.973503
 30
0.0
 11
201.870318
 21
188.442403
 31
0.0
  0
LINE
  5
2430
100
AcDbEntity
  8
OBJECT
100
AcDbLine
 10
202.020318
 20
187.973503
 30
0.0
 11
202.020318
 21
188.442403
 31
0.0
  0
LINE
  5
2431
100
AcDbEntity
  8
OBJECT
100
AcDbLine
 10
201.720318
 20
187.973503
 30
0.0
 11
201.720318
 21
188.442403
 31
0.0
  0
LINE
  5
2432
100
AcDbEntity
  8
OBJECT
100
AcDbLine
 10
202.782003
 20
186.951648
 30
0.0
 11
202.782003
 21
189.658473
 31
0.0
  0
LINE
  5
2433
100
AcDbEntity
  8
DIM
100
AcDbLine
 10
208.22969
 20
185.818808
 30
0.0
 11
209.35469
 21
185.818808
 31
0.0
  0
LINE
  5
2434
100
AcDbEntity
  8
DIM
100
AcDbLine
 10
211.012298
 20
189.994543
 30
0.0
 11
209.788887
 21
189.994543
 31
0.0
  0
LINE
  5
24CE
100
AcDbEntity
  8
15
100
AcDbLine
 10
197.346381
 20
195.71334
 30
0.0
 11
200.88931
 21
195.71334
 31
0.0
  0
LINE
  5
24CF
100
AcDbEntity
  8
15
100
AcDbLine
 10
197.346381
 20
195.76024
 30
0.0
 11
200.88931
 21
195.76024
 31
0.0
  0
LINE
  5
24D0
100
AcDbEntity
  8
15
100
AcDbLine
 10
197.346381
 20
195.80714
 30
0.0
 11
200.88931
 21
195.80714
 31
0.0
  0
LINE
  5
24D1
100
AcDbEntity
  8
15
100
AcDbLine
 10
197.346381
 20
195.85404
 30
0.0
 11
200.88931
 21
195.85404
 31
0.0
  0
LINE
  5
24D2
100
AcDbEntity
  8
15
100
AcDbLine
 10
197.346381
 20
195.90094
 30
0.0
 11
200.88931
 21
195.90094
 31
0.0
  0
LINE
  5
24D3
100
AcDbEntity
  8
15
100
AcDbLine
 10
197.346381
 20
195.94784
 30
0.0
 11
200.88931
 21
195.94784
 31
0.0
  0
LINE
  5
24D4
100
AcDbEntity
  8
15
100
AcDbLine
 10
197.346381
 20
195.99474
 30
0.0
 11
200.88931
 21
195.99474
 31
0.0
  0
LINE
  5
24D5
100
AcDbEntity
  8
15
100
AcDbLine
 10
197.346381
 20
196.04164
 30
0.0
 11
200.88931
 21
196.04164
 31
0.0
  0
LINE
  5
24D6
100
AcDbEntity
  8
15
100
AcDbLine
 10
197.346381
 20
196.088515
 30
0.0
 11
200.88931
 21
196.088515
 31
0.0
  0
LINE
  5
24D7
100
AcDbEntity
  8
15
100
AcDbLine
 10
197.346381
 20
196.13539
 30
0.0
 11
200.88931
 21
196.13539
 31
0.0
  0
LINE
  5
24D8
100
AcDbEntity
  8
15
100
AcDbLine
 10
197.346381
 20
196.182265
 30
0.0
 11
200.88931
 21
196.182265
 31
0.0
  0
LINE
  5
24D9
100
AcDbEntity
  8
15
100
AcDbLine
 10
197.346381
 20
196.22914
 30
0.0
 11
200.88931
 21
196.22914
 31
0.0
  0
LINE
  5
24DA
100
AcDbEntity
  8
15
100
AcDbLine
 10
197.346381
 20
196.276015
 30
0.0
 11
200.88931
 21
196.276015
 31
0.0
  0
LINE
  5
24DB
100
AcDbEntity
  8
15
100
AcDbLine
 10
197.346381
 20
196.32289
 30
0.0
 11
200.88931
 21
196.32289
 31
0.0
  0
LINE
  5
24DC
100
AcDbEntity
  8
15
100
AcDbLine
 10
197.346381
 20
196.369765
 30
0.0
 11
200.88931
 21
196.369765
 31
0.0
  0
LINE
  5
24DD
100
AcDbEntity
  8
15
100
AcDbLine
 10
197.346381
 20
196.41664
 30
0.0
 11
200.88931
 21
196.41664
 31
0.0
  0
LINE
  5
24DE
100
AcDbEntity
  8
15
100
AcDbLine
 10
197.346381
 20
196.463515
 30
0.0
 11
200.88931
 21
196.463515
 31
0.0
  0
LINE
  5
24DF
100
AcDbEntity
  8
15
100
AcDbLine
 10
197.346381
 20
196.51039
 30
0.0
 11
200.88931
 21
196.51039
 31
0.0
  0
LINE
  5
24E0
100
AcDbEntity
  8
15
100
AcDbLine
 10
197.550318
 20
196.557265
 30
0.0
 11
200.689393
 21
196.557265
 31
0.0
  0
LINE
  5
24E1
100
AcDbEntity
  8
15
100
AcDbLine
 10
197.550318
 20
196.60414
 30
0.0
 11
200.689393
 21
196.60414
 31
0.0
  0
LINE
  5
24E2
100
AcDbEntity
  8
15
100
AcDbLine
 10
197.550318
 20
196.651015
 30
0.0
 11
200.689393
 21
196.651015
 31
0.0
  0
LINE
  5
24E3
100
AcDbEntity
  8
15
100
AcDbLine
 10
197.550318
 20
196.69789
 30
0.0
 11
200.689393
 21
196.69789
 31
0.0
  0
LINE
  5
24E4
100
AcDbEntity
  8
15
100
AcDbLine
 10
197.550318
 20
196.744765
 30
0.0
 11
200.689393
 21
196.744765
 31
0.0
  0
LINE
  5
24E5
100
AcDbEntity
  8
15
100
AcDbLine
 10
197.550318
 20
196.79164
 30
0.0
 11
200.689393
 21
196.79164
 31
0.0
  0
LINE
  5
24E6
100
AcDbEntity
  8
15
100
AcDbLine
 10
197.346381
 20
197.91664
 30
0.0
 11
200.88931
 21
197.91664
 31
0.0
  0
LINE
  5
24E7
100
AcDbEntity
  8
15
100
AcDbLine
 10
197.346381
 20
197.869765
 30
0.0
 11
200.88931
 21
197.869765
 31
0.0
  0
LINE
  5
24E8
100
AcDbEntity
  8
15
100
AcDbLine
 10
197.346381
 20
197.82289
 30
0.0
 11
200.88931
 21
197.82289
 31
0.0
  0
LINE
  5
24E9
100
AcDbEntity
  8
15
100
AcDbLine
 10
197.346381
 20
197.776015
 30
0.0
 11
200.88931
 21
197.776015
 31
0.0
  0
LINE
  5
24EA
100
AcDbEntity
  8
15
100
AcDbLine
 10
197.346381
 20
197.72914
 30
0.0
 11
200.88931
 21
197.72914
 31
0.0
  0
LINE
  5
24EB
100
AcDbEntity
  8
15
100
AcDbLine
 10
197.346381
 20
197.682265
 30
0.0
 11
200.88931
 21
197.682265
 31
0.0
  0
LINE
  5
24EC
100
AcDbEntity
  8
15
100
AcDbLine
 10
197.346381
 20
197.63539
 30
0.0
 11
200.88931
 21
197.63539
 31
0.0
  0
LINE
  5
24ED
100
AcDbEntity
  8
15
100
AcDbLine
 10
197.346381
 20
197.588515
 30
0.0
 11
200.88931
 21
197.588515
 31
0.0
  0
LINE
  5
24EE
100
AcDbEntity
  8
15
100
AcDbLine
 10
197.550318
 20
197.54164
 30
0.0
 11
200.689393
 21
197.54164
 31
0.0
  0
LINE
  5
24EF
100
AcDbEntity
  8
15
100
AcDbLine
 10
197.550318
 20
197.494765
 30
0.0
 11
200.689393
 21
197.494765
 31
0.0
  0
LINE
  5
24F0
100
AcDbEntity
  8
15
100
AcDbLine
 10
197.550318
 20
197.44789
 30
0.0
 11
200.689393
 21
197.44789
 31
0.0
  0
LINE
  5
24F1
100
AcDbEntity
  8
15
100
AcDbLine
 10
197.550318
 20
197.401015
 30
0.0
 11
200.689393
 21
197.401015
 31
0.0
  0
LINE
  5
24F2
100
AcDbEntity
  8
15
100
AcDbLine
 10
197.550318
 20
197.35414
 30
0.0
 11
200.689393
 21
197.35414
 31
0.0
  0
LINE
  5
24F3
100
AcDbEntity
  8
15
100
AcDbLine
 10
197.550318
 20
197.307265
 30
0.0
 11
200.689393
 21
197.307265
 31
0.0
  0
TEXT
  5
24F4
100
AcDbEntity
  8
DIM
100
AcDbText
 10
195.272753
 20
214.144646
 30
0.0
 40
0.976563
  1
  of the basin.
  7
ROMANS
100
AcDbText
  0
TEXT
  5
24F5
100
AcDbEntity
  8
DIM
100
AcDbText
 10
195.272753
 20
225.212354
 30
0.0
 40
0.976563
  1
  zall(with rim grit blade)
  7
ROMANS
100
AcDbText
  0
LINE
  5
24F6
102
{ACAD_REACTORS
330
26AB
330
26C1
102
}
100
AcDbEntity
  8
OBJECT
100
AcDbLine
 10
198.612026
 20
199.877223
 30
0.0
 11
200.87738
 21
199.877223
 31
0.0
  0
LINE
  5
24F7
102
{ACAD_REACTORS
330
26AB
330
26C1
102
}
100
AcDbEntity
  8
OBJECT
100
AcDbLine
 10
198.612026
 20
200.439723
 30
0.0
 11
200.87738
 21
200.439723
 31
0.0
  0
LINE
  5
24F8
100
AcDbEntity
  8
CENTER
100
AcDbLine
 10
197.898654
 20
200.158473
 30
0.0
 11
201.172013
 21
200.158473
 31
0.0
  0
LINE
  5
24F9
102
{ACAD_REACTORS
330
26AB
102
}
100
AcDbEntity
  8
OBJECT
100
AcDbLine
 10
198.917079
 20
201.658473
 30
0.0
 11
199.292079
 21
201.658473
 31
0.0
  0
LINE
  5
24FA
100
AcDbEntity
  8
OBJECT
100
AcDbLine
 10
192.718689
 20
195.658473
 30
0.0
 11
205.115468
 21
195.658473
 31
0.0
  0
LINE
  5
24FB
100
AcDbEntity
  8
CENTER
100
AcDbLine
 10
190.485987
 20
192.658473
 30
0.0
 11
207.166896
 21
192.658473
 31
0.0
  0
INSERT
  5
24FC
100
AcDbEntity
  8
HATCH
100
AcDbBlockReference
  2
*X1
 10
-302.924117
 20
-16.11461
 30
0.0
 41
1.5
 42
1.5
 43
1.5
1001
ACAD
1000
HATCH
1002
{
1070
    16
1000
ANSI38
1040
1.0
1040
0.0
1002
}
  0
INSERT
  5
24FD
100
AcDbEntity
  8
HATCH
100
AcDbBlockReference
  2
*X0
 10
-302.924117
 20
-16.11461
 30
0.0
 41
1.5
 42
1.5
 43
1.5
1001
ACAD
1000
HATCH
1002
{
1070
    16
1000
ANSI32
1040
1.0
1040
0.0
1002
}
  0
LINE
  5
24FE
100
AcDbEntity
  8
OBJECT
100
AcDbLine
 10
201.105
 20
196.816095
 30
0.0
 11
196.972818
 21
196.816095
 31
0.0
  0
LINE
  5
24FF
100
AcDbEntity
  8
OBJECT
100
AcDbLine
 10
201.105
 20
197.284995
 30
0.0
 11
196.972818
 21
197.284995
 31
0.0
  0
LINE
  5
2500
100
AcDbEntity
  8
OBJECT
100
AcDbLine
 10
200.689393
 20
196.816095
 30
0.0
 11
197.550318
 21
196.816095
 31
0.0
  0
LINE
  5
2501
100
AcDbEntity
  8
15
100
AcDbLine
 10
200.689393
 20
197.284995
 30
0.0
 11
197.550318
 21
197.284995
 31
0.0
  0
LINE
  5
2502
102
{ACAD_REACTORS
330
26AB
330
26C1
102
}
100
AcDbEntity
  8
OBJECT
100
AcDbLine
 10
195.802154
 20
198.30685
 30
0.0
 11
202.782003
 21
198.30685
 31
0.0
  0
LINE
  5
2503
100
AcDbEntity
  8
OBJECT
100
AcDbLine
 10
195.802154
 20
197.93185
 30
0.0
 11
202.782003
 21
197.93185
 31
0.0
  0
ARC
  5
2504
100
AcDbEntity
  8
OBJECT
100
AcDbCircle
 10
193.620916
 20
194.158473
 30
0.0
 40
1.600432
100
AcDbArc
 50
118.471151
 51
238.973743
  0
ARC
  5
2505
100
AcDbEntity
  8
OBJECT
100
AcDbCircle
 10
193.620916
 20
194.158473
 30
0.0
 40
1.750432
100
AcDbArc
 50
121.026257
 51
238.973743
  0
ARC
  5
2506
100
AcDbEntity
  8
OBJECT
100
AcDbCircle
 10
198.740746
 20
199.736598
 30
0.0
 40
0.176332
100
AcDbArc
 50
307.107925
 51
52.892075
  0
ARC
  5
2507
100
AcDbEntity
  8
OBJECT
100
AcDbCircle
 10
198.718411
 20
199.736598
 30
0.0
 40
0.176332
100
AcDbArc
 50
127.107925
 51
232.892075
  0
LINE
  5
2508
102
{ACAD_REACTORS
330
26AB
102
}
100
AcDbEntity
  8
OBJECT
100
AcDbLine
 10
198.917079
 20
201.658473
 30
0.0
 11
198.917079
 21
198.30685
 31
0.0
  0
ARC
  5
2509
100
AcDbEntity
  8
OBJECT
100
AcDbCircle
 10
191.816462
 20
194.158473
 30
0.0
 40
1.750432
100
AcDbArc
 50
301.026257
 51
58.973743
  0
LWPOLYLINE
  5
250A
100
AcDbEntity
  8
OBJECT
100
AcDbPolyline
 90
        2
 70
     0
 43
0.0
 10
195.802154
 20
196.004249
 10
195.802154
 20
197.93185
  0
LINE
  5
250B
100
AcDbEntity
  8
OBJECT
100
AcDbLine
 10
195.802154
 20
198.30685
 30
0.0
 11
195.802154
 21
195.658473
 31
0.0
  0
LINE
  5
250C
100
AcDbEntity
  8
OBJECT
100
AcDbLine
 10
196.972818
 20
196.555545
 30
0.0
 11
197.550318
 21
196.555545
 31
0.0
  0
LINE
  5
250D
100
AcDbEntity
  8
OBJECT
100
AcDbLine
 10
196.972818
 20
197.545545
 30
0.0
 11
197.550318
 21
197.545545
 31
0.0
  0
LINE
  5
250E
100
AcDbEntity
  8
15
100
AcDbLine
 10
197.513383
 20
197.545545
 30
0.0
 11
197.513383
 21
197.93185
 31
0.0
  0
LINE
  5
250F
100
AcDbEntity
  8
15
100
AcDbLine
 10
197.346381
 20
197.93185
 30
0.0
 11
197.346381
 21
197.545545
 31
0.0
  0
LINE
  5
2510
100
AcDbEntity
  8
OBJECT
100
AcDbLine
 10
196.972818
 20
197.23367
 30
0.0
 11
196.597818
 21
197.23367
 31
0.0
  0
LINE
  5
2511
100
AcDbEntity
  8
OBJECT
100
AcDbLine
 10
196.972818
 20
196.867419
 30
0.0
 11
196.597818
 21
196.867419
 31
0.0
  0
LINE
  5
2512
100
AcDbEntity
  8
OBJECT
100
AcDbLine
 10
196.972818
 20
196.630545
 30
0.0
 11
196.597818
 21
196.630545
 31
0.0
  0
LINE
  5
2513
100
AcDbEntity
  8
OBJECT
100
AcDbLine
 10
196.972818
 20
197.470545
 30
0.0
 11
196.597818
 21
197.470545
 31
0.0
  0
LINE
  5
2514
100
AcDbEntity
  8
OBJECT
100
AcDbLine
 10
196.597818
 20
197.470545
 30
0.0
 11
196.597818
 21
196.630545
 31
0.0
  0
LINE
  5
2515
100
AcDbEntity
  8
15
100
AcDbLine
 10
197.513383
 20
195.658473
 30
0.0
 11
197.513383
 21
196.555545
 31
0.0
  0
LINE
  5
2516
100
AcDbEntity
  8
OBJECT
100
AcDbLine
 10
197.346381
 20
196.555545
 30
0.0
 11
197.346381
 21
195.658473
 31
0.0
  0
LINE
  5
2517
100
AcDbEntity
  8
OBJECT
100
AcDbLine
 10
196.972818
 20
197.545545
 30
0.0
 11
196.972818
 21
196.555545
 31
0.0
  0
LINE
  5
2518
100
AcDbEntity
  8
15
100
AcDbLine
 10
199.200883
 20
197.284995
 30
0.0
 11
199.200883
 21
197.93185
 31
0.0
  0
LINE
  5
2519
100
AcDbEntity
  8
15
100
AcDbLine
 10
197.700883
 20
197.284995
 30
0.0
 11
197.700883
 21
197.93185
 31
0.0
  0
LINE
  5
251A
100
AcDbEntity
  8
15
100
AcDbLine
 10
197.888383
 20
197.284995
 30
0.0
 11
197.888383
 21
197.93185
 31
0.0
  0
LINE
  5
251B
100
AcDbEntity
  8
15
100
AcDbLine
 10
198.075883
 20
197.284995
 30
0.0
 11
198.075883
 21
197.93185
 31
0.0
  0
LINE
  5
251C
100
AcDbEntity
  8
15
100
AcDbLine
 10
198.263383
 20
197.284995
 30
0.0
 11
198.263383
 21
197.93185
 31
0.0
  0
LINE
  5
251D
100
AcDbEntity
  8
15
100
AcDbLine
 10
198.450883
 20
197.284995
 30
0.0
 11
198.450883
 21
197.93185
 31
0.0
  0
LINE
  5
251E
100
AcDbEntity
  8
15
100
AcDbLine
 10
198.638383
 20
197.284995
 30
0.0
 11
198.638383
 21
197.93185
 31
0.0
  0
LINE
  5
251F
100
AcDbEntity
  8
15
100
AcDbLine
 10
198.825883
 20
197.284995
 30
0.0
 11
198.825883
 21
197.93185
 31
0.0
  0
LINE
  5
2520
100
AcDbEntity
  8
15
100
AcDbLine
 10
199.013383
 20
197.284995
 30
0.0
 11
199.013383
 21
197.93185
 31
0.0
  0
LINE
  5
2521
100
AcDbEntity
  8
15
100
AcDbLine
 10
197.700883
 20
195.658473
 30
0.0
 11
197.700883
 21
196.816095
 31
0.0
  0
LINE
  5
2522
100
AcDbEntity
  8
15
100
AcDbLine
 10
197.888383
 20
195.658473
 30
0.0
 11
197.888383
 21
196.816095
 31
0.0
  0
LINE
  5
2523
100
AcDbEntity
  8
15
100
AcDbLine
 10
198.075883
 20
195.658473
 30
0.0
 11
198.075883
 21
196.816095
 31
0.0
  0
LINE
  5
2524
100
AcDbEntity
  8
15
100
AcDbLine
 10
198.263383
 20
195.658473
 30
0.0
 11
198.263383
 21
196.816095
 31
0.0
  0
LINE
  5
2525
100
AcDbEntity
  8
OBJECT
100
AcDbLine
 10
197.550318
 20
196.816095
 30
0.0
 11
197.550318
 21
196.555545
 31
0.0
  0
LINE
  5
2526
100
AcDbEntity
  8
15
100
AcDbLine
 10
197.550318
 20
197.545545
 30
0.0
 11
197.550318
 21
197.284995
 31
0.0
  0
LINE
  5
2527
100
AcDbEntity
  8
15
100
AcDbLine
 10
199.200883
 20
195.658473
 30
0.0
 11
199.200883
 21
196.816095
 31
0.0
  0
LINE
  5
2528
100
AcDbEntity
  8
15
100
AcDbLine
 10
198.450883
 20
195.658473
 30
0.0
 11
198.450883
 21
196.816095
 31
0.0
  0
LINE
  5
2529
100
AcDbEntity
  8
15
100
AcDbLine
 10
198.638383
 20
195.658473
 30
0.0
 11
198.638383
 21
196.816095
 31
0.0
  0
LINE
  5
252A
100
AcDbEntity
  8
15
100
AcDbLine
 10
198.825883
 20
195.658473
 30
0.0
 11
198.825883
 21
196.816095
 31
0.0
  0
LINE
  5
252B
100
AcDbEntity
  8
15
100
AcDbLine
 10
199.013383
 20
195.658473
 30
0.0
 11
199.013383
 21
196.816095
 31
0.0
  0
LINE
  5
252C
100
AcDbEntity
  8
OBJECT
100
AcDbLine
 10
198.612026
 20
199.595973
 30
0.0
 11
198.917079
 21
199.595973
 31
0.0
  0
ARC
  5
252D
100
AcDbEntity
  8
OBJECT
100
AcDbCircle
 10
198.316671
 20
200.158473
 30
0.0
 40
0.600407
100
AcDbArc
 50
332.067427
 51
27.932573
  0
ARC
  5
252E
100
AcDbEntity
  8
OBJECT
100
AcDbCircle
 10
198.740746
 20
200.580348
 30
0.0
 40
0.176332
100
AcDbArc
 50
307.107925
 51
52.892075
  0
ARC
  5
252F
100
AcDbEntity
  8
OBJECT
100
AcDbCircle
 10
198.718411
 20
200.580348
 30
0.0
 40
0.176332
100
AcDbArc
 50
127.107925
 51
232.892075
  0
ARC
  5
2530
100
AcDbEntity
  8
OBJECT
100
AcDbCircle
 10
199.142486
 20
200.158473
 30
0.0
 40
0.600407
100
AcDbArc
 50
152.067427
 51
207.932573
  0
LINE
  5
2531
100
AcDbEntity
  8
OBJECT
100
AcDbLine
 10
198.542079
 20
200.580348
 30
0.0
 11
198.542079
 21
199.736598
 31
0.0
  0
LINE
  5
2532
100
AcDbEntity
  8
OBJECT
100
AcDbLine
 10
198.612026
 20
200.720973
 30
0.0
 11
198.917079
 21
200.720973
 31
0.0
  0
LWPOLYLINE
  5
2533
100
AcDbEntity
  8
BORDER
 62
     5
100
AcDbPolyline
 90
        2
 70
     0
 43
0.226295
 10
184.213912
 20
238.842685
 42
-0.414214
 10
185.119093
 20
239.747866
 42
-0.76155
  0
ARC
  5
2534
100
AcDbEntity
  8
BORDER
 62
     5
100
AcDbCircle
 10
185.119093
 20
238.842685
 30
0.0
 40
0.905181
100
AcDbArc
 50
90.0
 51
180.0
  0
TEXT
  5
2535
100
AcDbEntity
  8
DIM
100
AcDbText
 10
207.599457
 20
204.704075
 30
0.0
 40
0.75
  1
BASIN WALL
  7
ROMANS
 11
207.599457
 21
205.079075
 31
0.0
100
AcDbText
 73
     2
  0
TEXT
  5
2536
100
AcDbEntity
  8
DIM
100
AcDbText
 10
210.117458
 20
196.932052
 30
0.0
 40
0.75
  1
AlLUMINUM BOLT-ON
  7
ROMANS
 11
210.117458
 21
197.307052
 31
0.0
100
AcDbText
 73
     2
  0
TEXT
  5
2537
100
AcDbEntity
  8
DIM
100
AcDbText
 10
207.599457
 20
205.765846
 30
0.0
 40
0.75
  1
FIBERGLASS
  7
ROMANS
 11
207.599457
 21
206.140846
 31
0.0
100
AcDbText
 73
     2
  0
LEADER
  5
2538
100
AcDbEntity
  8
DIM
100
AcDbLeader
  3
STANDARD
 76
     2
 10
202.638143
 20
198.141635
 30
0.0
 10
208.857458
 20
197.307052
 30
0.0
 77
   256
1001
ACAD
1000
DSTYLE
1002
{
1070
    78
1070
    12
1070
   284
1070
    12
1070
   140
1040
0.5
1070
   340
1005
26
1070
   272
1070
     0
1070
   147
1040
0.375
1070
   287
1070
     5
1070
    41
1040
0.35
1002
}
  0
LEADER
  5
2539
100
AcDbEntity
  8
DIM
100
AcDbLeader
  3
STANDARD
 76
     2
 10
199.707626
 20
204.104972
 30
0.0
 10
206.339457
 20
206.140846
 30
0.0
 77
   256
1001
ACAD
1000
DSTYLE
1002
{
1070
   340
1005
26
1070
   287
1070
     5
1070
    41
1040
0.75
1002
}
  0
ARC
  5
253A
100
AcDbEntity
  8
OBJECT
100
AcDbCircle
 10
204.213241
 20
194.158473
 30
0.0
 40
1.750432
100
AcDbArc
 50
301.026257
 51
58.973743
  0
ARC
  5
253B
100
AcDbEntity
  8
OBJECT
100
AcDbCircle
 10
204.213241
 20
194.158473
 30
0.0
 40
1.600432
100
AcDbArc
 50
301.026257
 51
61.528849
  0
LINE
  5
253C
102
{ACAD_REACTORS
330
26AB
330
26C1
102
}
100
AcDbEntity
  8
OBJECT
100
AcDbLine
 10
199.292079
 20
199.877223
 30
0.0
 11
199.292079
 21
198.30685
 31
0.0
  0
LINE
  5
253D
100
AcDbEntity
  8
OBJECT
100
AcDbLine
 10
200.417079
 20
200.720973
 30
0.0
 11
200.417079
 21
199.595973
 31
0.0
  0
ARC
  5
253E
100
AcDbEntity
  8
OBJECT
100
AcDbCircle
 10
200.218411
 20
199.736598
 30
0.0
 40
0.176332
100
AcDbArc
 50
127.107925
 51
232.892075
  0
ARC
  5
253F
100
AcDbEntity
  8
OBJECT
100
AcDbCircle
 10
200.240746
 20
199.736598
 30
0.0
 40
0.176332
100
AcDbArc
 50
307.107925
 51
52.892075
  0
LINE
  5
2540
102
{ACAD_REACTORS
330
26C1
102
}
100
AcDbEntity
  8
OBJECT
100
AcDbLine
 10
200.042079
 20
198.30685
 30
0.0
 11
200.042079
 21
199.877223
 31
0.0
  0
LINE
  5
2541
100
AcDbEntity
  8
OBJECT
100
AcDbLine
 10
200.689393
 20
197.545545
 30
0.0
 11
201.266893
 21
197.545545
 31
0.0
  0
LINE
  5
2542
100
AcDbEntity
  8
OBJECT
100
AcDbLine
 10
200.689393
 20
196.555545
 30
0.0
 11
201.266893
 21
196.555545
 31
0.0
  0
LINE
  5
2543
100
AcDbEntity
  8
15
100
AcDbLine
 10
200.700883
 20
197.545545
 30
0.0
 11
200.700883
 21
197.93185
 31
0.0
  0
LINE
  5
2544
100
AcDbEntity
  8
15
100
AcDbLine
 10
200.513383
 20
197.284995
 30
0.0
 11
200.513383
 21
197.93185
 31
0.0
  0
LINE
  5
2545
100
AcDbEntity
  8
15
100
AcDbLine
 10
200.325883
 20
197.284995
 30
0.0
 11
200.325883
 21
197.93185
 31
0.0
  0
LINE
  5
2546
100
AcDbEntity
  8
15
100
AcDbLine
 10
200.138383
 20
197.284995
 30
0.0
 11
200.138383
 21
197.93185
 31
0.0
  0
LINE
  5
2547
100
AcDbEntity
  8
15
100
AcDbLine
 10
199.950883
 20
197.284995
 30
0.0
 11
199.950883
 21
197.93185
 31
0.0
  0
LINE
  5
2548
100
AcDbEntity
  8
15
100
AcDbLine
 10
199.763383
 20
197.284995
 30
0.0
 11
199.763383
 21
197.93185
 31
0.0
  0
LINE
  5
2549
100
AcDbEntity
  8
15
100
AcDbLine
 10
199.575883
 20
197.284995
 30
0.0
 11
199.575883
 21
197.93185
 31
0.0
  0
LINE
  5
254A
100
AcDbEntity
  8
15
100
AcDbLine
 10
199.388383
 20
197.284995
 30
0.0
 11
199.388383
 21
197.93185
 31
0.0
  0
LINE
  5
254B
100
AcDbEntity
  8
15
100
AcDbLine
 10
199.950883
 20
195.658473
 30
0.0
 11
199.950883
 21
196.816095
 31
0.0
  0
LINE
  5
254C
100
AcDbEntity
  8
15
100
AcDbLine
 10
199.763383
 20
195.658473
 30
0.0
 11
199.763383
 21
196.816095
 31
0.0
  0
LINE
  5
254D
100
AcDbEntity
  8
15
100
AcDbLine
 10
199.575883
 20
195.658473
 30
0.0
 11
199.575883
 21
196.816095
 31
0.0
  0
LINE
  5
254E
100
AcDbEntity
  8
15
100
AcDbLine
 10
199.388383
 20
195.658473
 30
0.0
 11
199.388383
 21
196.816095
 31
0.0
  0
LINE
  5
254F
100
AcDbEntity
  8
15
100
AcDbLine
 10
200.700883
 20
195.658473
 30
0.0
 11
200.700883
 21
196.555545
 31
0.0
  0
LINE
  5
2550
100
AcDbEntity
  8
15
100
AcDbLine
 10
200.513383
 20
195.658473
 30
0.0
 11
200.513383
 21
196.816095
 31
0.0
  0
LINE
  5
2551
100
AcDbEntity
  8
15
100
AcDbLine
 10
200.325883
 20
195.658473
 30
0.0
 11
200.325883
 21
196.816095
 31
0.0
  0
LINE
  5
2552
100
AcDbEntity
  8
15
100
AcDbLine
 10
200.138383
 20
195.658473
 30
0.0
 11
200.138383
 21
196.816095
 31
0.0
  0
LINE
  5
2553
100
AcDbEntity
  8
OBJECT
100
AcDbLine
 10
200.689393
 20
196.816095
 30
0.0
 11
200.689393
 21
196.555545
 31
0.0
  0
LINE
  5
2554
100
AcDbEntity
  8
15
100
AcDbLine
 10
200.689393
 20
197.545545
 30
0.0
 11
200.689393
 21
197.284995
 31
0.0
  0
LINE
  5
2555
100
AcDbEntity
  8
OBJECT
100
AcDbLine
 10
200.042079
 20
199.595973
 30
0.0
 11
200.417079
 21
199.595973
 31
0.0
  0
LINE
  5
2556
100
AcDbEntity
  8
15
100
AcDbLine
 10
200.888383
 20
197.545545
 30
0.0
 11
200.888383
 21
197.93185
 31
0.0
  0
LINE
  5
2557
100
AcDbEntity
  8
15
100
AcDbLine
 10
200.88931
 20
197.93185
 30
0.0
 11
200.88931
 21
197.545545
 31
0.0
  0
LINE
  5
2558
100
AcDbEntity
  8
OBJECT
100
AcDbLine
 10
202.170318
 20
196.816095
 30
0.0
 11
201.48
 21
196.816095
 31
0.0
  0
LINE
  5
2559
100
AcDbEntity
  8
OBJECT
100
AcDbLine
 10
202.170318
 20
197.284995
 30
0.0
 11
201.48
 21
197.284995
 31
0.0
  0
LINE
  5
255A
100
AcDbEntity
  8
0
 62
     0
100
AcDbLine
 10
200.888383
 20
196.004249
 30
0.0
 11
200.888383
 21
196.555545
 31
0.0
  0
LINE
  5
255B
100
AcDbEntity
  8
OBJECT
100
AcDbLine
 10
200.888383
 20
196.555545
 30
0.0
 11
200.888383
 21
195.658473
 31
0.0
  0
LINE
  5
255C
100
AcDbEntity
  8
OBJECT
100
AcDbLine
 10
201.266893
 20
197.545545
 30
0.0
 11
201.266893
 21
197.470545
 31
0.0
  0
LINE
  5
255D
100
AcDbEntity
  8
OBJECT
100
AcDbLine
 10
201.105
 20
197.470545
 30
0.0
 11
201.105
 21
196.630545
 31
0.0
  0
LINE
  5
255E
100
AcDbEntity
  8
OBJECT
100
AcDbLine
 10
200.88931
 20
196.555545
 30
0.0
 11
200.88931
 21
196.004249
 31
0.0
  0
LINE
  5
255F
100
AcDbEntity
  8
OBJECT
100
AcDbLine
 10
201.570318
 20
197.284995
 30
0.0
 11
201.570318
 21
196.816095
 31
0.0
  0
LINE
  5
2560
100
AcDbEntity
  8
OBJECT
100
AcDbLine
 10
201.48
 20
197.470545
 30
0.0
 11
201.48
 21
196.630545
 31
0.0
  0
LINE
  5
2561
100
AcDbEntity
  8
OBJECT
100
AcDbLine
 10
201.48
 20
197.470545
 30
0.0
 11
201.105
 21
197.470545
 31
0.0
  0
LINE
  5
2562
100
AcDbEntity
  8
OBJECT
100
AcDbLine
 10
201.48
 20
196.630545
 30
0.0
 11
201.105
 21
196.630545
 31
0.0
  0
LINE
  5
2563
100
AcDbEntity
  8
OBJECT
100
AcDbLine
 10
201.48
 20
196.867419
 30
0.0
 11
201.105
 21
196.867419
 31
0.0
  0
LINE
  5
2564
100
AcDbEntity
  8
OBJECT
100
AcDbLine
 10
201.48
 20
197.23367
 30
0.0
 11
201.105
 21
197.23367
 31
0.0
  0
LINE
  5
2565
100
AcDbEntity
  8
OBJECT
100
AcDbLine
 10
201.266893
 20
196.630545
 30
0.0
 11
201.266893
 21
196.555545
 31
0.0
  0
LINE
  5
2566
100
AcDbEntity
  8
OBJECT
100
AcDbLine
 10
201.720318
 20
197.284995
 30
0.0
 11
201.720318
 21
196.816095
 31
0.0
  0
LINE
  5
2567
100
AcDbEntity
  8
OBJECT
100
AcDbLine
 10
202.020318
 20
197.284995
 30
0.0
 11
202.020318
 21
196.816095
 31
0.0
  0
LINE
  5
2568
100
AcDbEntity
  8
OBJECT
100
AcDbLine
 10
201.870318
 20
197.284995
 30
0.0
 11
201.870318
 21
196.816095
 31
0.0
  0
LINE
  5
2569
100
AcDbEntity
  8
OBJECT
100
AcDbLine
 10
202.170318
 20
197.284995
 30
0.0
 11
202.170318
 21
196.816095
 31
0.0
  0
ARC
  5
256A
100
AcDbEntity
  8
OBJECT
100
AcDbCircle
 10
206.017695
 20
194.158473
 30
0.0
 40
1.750432
100
AcDbArc
 50
121.026257
 51
238.973743
  0
LINE
  5
256B
100
AcDbEntity
  8
OBJECT
100
AcDbLine
 10
202.782003
 20
198.30685
 30
0.0
 11
202.782003
 21
195.658473
 31
0.0
  0
LINE
  5
256C
102
{ACAD_REACTORS
330
26C1
102
}
100
AcDbEntity
  8
OBJECT
100
AcDbLine
 10
200.042079
 20
200.439723
 30
0.0
 11
200.042079
 21
205.371342
 31
0.0
  0
LINE
  5
256D
102
{ACAD_REACTORS
330
26C1
102
}
100
AcDbEntity
  8
OBJECT
100
AcDbLine
 10
199.292079
 20
201.658473
 30
0.0
 11
199.292079
 21
205.371342
 31
0.0
  0
LINE
  5
256E
102
{ACAD_REACTORS
330
26AB
330
26C1
102
}
100
AcDbEntity
  8
OBJECT
100
AcDbLine
 10
199.292079
 20
201.658473
 30
0.0
 11
199.292079
 21
200.439723
 31
0.0
  0
ARC
  5
256F
100
AcDbEntity
  8
OBJECT
100
AcDbCircle
 10
200.642486
 20
200.158473
 30
0.0
 40
0.600407
100
AcDbArc
 50
152.067427
 51
207.932573
  0
ARC
  5
2570
100
AcDbEntity
  8
OBJECT
100
AcDbCircle
 10
200.218411
 20
200.580348
 30
0.0
 40
0.176332
100
AcDbArc
 50
127.107925
 51
232.892075
  0
LINE
  5
2571
100
AcDbEntity
  8
OBJECT
100
AcDbLine
 10
200.042079
 20
200.720973
 30
0.0
 11
200.417079
 21
200.720973
 31
0.0
  0
LINE
  5
2572
102
{ACAD_REACTORS
330
26C1
102
}
100
AcDbEntity
  8
OBJECT
100
AcDbLine
 10
200.042079
 20
200.580348
 30
0.0
 11
200.042079
 21
199.736598
 31
0.0
  0
ARC
  5
2573
100
AcDbEntity
  8
OBJECT
100
AcDbCircle
 10
200.240746
 20
200.580348
 30
0.0
 40
0.176332
100
AcDbArc
 50
307.107925
 51
52.892075
  0
ARC
  5
2574
100
AcDbEntity
  8
OBJECT
100
AcDbCircle
 10
199.816671
 20
200.158473
 30
0.0
 40
0.600407
100
AcDbArc
 50
332.067427
 51
27.932573
  0
LINE
  5
2575
100
AcDbEntity
  8
OBJECT
100
AcDbLine
 10
200.87738
 20
200.439723
 30
0.0
 11
200.87738
 21
199.877223
 31
0.0
  0
LINE
  5
2576
102
{ACAD_REACTORS
330
26C1
102
}
100
AcDbEntity
  8
OBJECT
100
AcDbLine
 10
199.640766
 20
205.479905
 30
0.0
 11
200.042079
 21
205.371342
 31
0.0
  0
LINE
  5
2577
102
{ACAD_REACTORS
330
26C1
102
}
100
AcDbEntity
  8
OBJECT
100
AcDbLine
 10
199.292079
 20
205.371342
 30
0.0
 11
199.640766
 21
205.479905
 31
0.0
  0
LINE
  5
2578
100
AcDbEntity
  8
DIM
100
AcDbLine
 10
208.857458
 20
197.307052
 30
0.0
 11
209.982458
 21
197.307052
 31
0.0
  0
LINE
  5
2579
100
AcDbEntity
  8
DIM
100
AcDbLine
 10
206.339457
 20
206.140846
 30
0.0
 11
207.464457
 21
206.140846
 31
0.0
  0
LINE
  5
257A
100
AcDbEntity
  8
DIM
100
AcDbLine
 10
206.339457
 20
206.140846
 30
0.0
 11
207.464457
 21
206.140846
 31
0.0
  0
TEXT
  5
257B
100
AcDbEntity
  8
DIM
100
AcDbText
 10
212.752497
 20
195.224689
 30
0.0
 40
0.75
  1
 SLEEVE
  7
ROMANS
 11
212.752497
 21
195.599689
 31
0.0
100
AcDbText
 73
     2
  0
LINE
  5
257C
100
AcDbEntity
  8
LIMITS
100
AcDbLine
 10
267.74355
 20
131.118229
 30
0.0
 11
267.74355
 21
241.118229
 31
0.0
  0
LWPOLYLINE
  5
257D
100
AcDbEntity
  8
BORDER
 62
     5
100
AcDbPolyline
 90
        2
 70
     0
 43
0.226295
 10
266.273188
 20
143.556181
 10
266.273188
 20
238.842685
  0
LINE
  5
257E
100
AcDbEntity
  8
OBJECT
100
AcDbLine
 10
233.177929
 20
201.658473
 30
0.0
 11
233.177929
 21
183.658473
 31
0.0
  0
LINE
  5
257F
100
AcDbEntity
  8
OBJECT
100
AcDbLine
 10
251.177929
 20
201.658473
 30
0.0
 11
251.177929
 21
183.658473
 31
0.0
  0
CIRCLE
  5
2580
100
AcDbEntity
  8
OBJECT
100
AcDbCircle
 10
242.177929
 20
192.658473
 30
0.0
 40
5.706825
  0
CIRCLE
  5
2581
100
AcDbEntity
  8
OBJECT
100
AcDbCircle
 10
242.177929
 20
192.658473
 30
0.0
 40
5.331825
  0
LINE
  5
2582
100
AcDbEntity
  8
CENTER
100
AcDbLine
 10
242.177929
 20
202.474502
 30
0.0
 11
242.177929
 21
182.842445
 31
0.0
  0
LINE
  5
2583
100
AcDbEntity
  8
OBJECT
100
AcDbLine
 10
238.694277
 20
190.412703
 30
0.0
 11
238.504677
 21
191.408416
 31
0.0
  0
ARC
  5
2584
100
AcDbEntity
  8
OBJECT
100
AcDbCircle
 10
237.805881
 20
191.237909
 30
0.0
 40
0.42795
100
AcDbArc
 50
190.780979
 51
205.219021
  0
LWPOLYLINE
  5
2585
100
AcDbEntity
  8
OBJECT
100
AcDbPolyline
 90
        6
 70
     1
 43
0.0
 10
238.275735
 20
191.650365
 10
237.792379
 20
191.753106
 10
237.461725
 20
191.385878
 10
237.614427
 20
190.915909
 10
238.097783
 20
190.813169
 10
238.428437
 20
191.180397
  0
LINE
  5
2586
100
AcDbEntity
  8
OBJECT
100
AcDbLine
 10
245.661582
 20
190.412703
 30
0.0
 11
245.851181
 21
191.408416
 31
0.0
  0
ARC
  5
2587
100
AcDbEntity
  8
OBJECT
100
AcDbCircle
 10
246.549977
 20
191.237909
 30
0.0
 40
0.42795
100
AcDbArc
 50
334.780979
 51
349.219021
  0
LWPOLYLINE
  5
2588
100
AcDbEntity
  8
OBJECT
100
AcDbPolyline
 90
        6
 70
     1
 43
0.0
 10
245.927422
 20
191.180397
 10
246.258075
 20
190.813169
 10
246.741431
 20
190.915909
 10
246.894133
 20
191.385878
 10
246.563479
 20
191.753106
 10
246.080124
 20
191.650365
  0
CIRCLE
  5
2589
100
AcDbEntity
  8
OBJECT
100
AcDbCircle
 10
242.177929
 20
192.658473
 30
0.0
 40
3.4236
  0
CIRCLE
  5
258A
100
AcDbEntity
  8
OBJECT
100
AcDbCircle
 10
242.177929
 20
192.658473
 30
0.0
 40
3.85155
  0
LWPOLYLINE
  5
258B
100
AcDbEntity
  8
BORDER
100
AcDbPolyline
 90
        6
 70
     1
 43
0.0
 10
252.370622
 20
138.988452
 10
252.611683
 20
139.405983
 10
252.370622
 20
139.823514
 10
251.888499
 20
139.823514
 10
251.647437
 20
139.405983
 10
251.888499
 20
138.988452
  0
LINE
  5
258C
100
AcDbEntity
  8
BORDER
100
AcDbLine
 10
264.010235
 20
135.447836
 30
0.0
 11
251.563995
 21
135.447836
 31
0.0
  0
LINE
  5
258D
100
AcDbEntity
  8
BORDER
100
AcDbLine
 10
264.010235
 20
136.579313
 30
0.0
 11
251.563995
 21
136.579313
 31
0.0
  0
LINE
  5
258E
100
AcDbEntity
  8
BORDER
100
AcDbLine
 10
264.010235
 20
137.710789
 30
0.0
 11
251.563995
 21
137.710789
 31
0.0
  0
LINE
  5
258F
100
AcDbEntity
  8
BORDER
100
AcDbLine
 10
264.010235
 20
138.842266
 30
0.0
 11
251.563995
 21
138.842266
 31
0.0
  0
LINE
  5
2590
100
AcDbEntity
  8
BORDER
100
AcDbLine
 10
264.010235
 20
139.973742
 30
0.0
 11
251.563995
 21
139.973742
 31
0.0
  0
LWPOLYLINE
  5
2591
100
AcDbEntity
  8
BORDER
 62
     5
100
AcDbPolyline
 90
        2
 70
     0
 43
0.565738
 10
251.563995
 20
143.124469
 42
0.414214
 10
249.301042
 20
140.861516
 42
-0.560527
  0
LINE
  5
2592
100
AcDbEntity
  8
BORDER
100
AcDbLine
 10
264.010235
 20
141.992993
 30
0.0
 11
251.563995
 21
141.992993
 31
0.0
  0
LWPOLYLINE
  5
2593
100
AcDbEntity
  8
BORDER
 62
     5
100
AcDbPolyline
 90
        2
 70
     0
 43
0.565738
 10
264.010235
 20
143.124469
 10
251.563995
 20
143.124469
  0
LINE
  5
2594
100
AcDbEntity
  8
BORDER
100
AcDbLine
 10
264.010235
 20
134.072658
 30
0.0
 11
250.432518
 21
134.072658
 31
0.0
  0
TEXT
  5
2597
100
AcDbEntity
  8
BORDER
 62
     6
100
AcDbText
 10
229.234028
 20
137.777479
 30
0.0
 40
0.424678
  1
in this print by any other source than TOPP INDUSTRIES, INC.
 41
0.839168
  7
ROMANS
 72
     5
 11
246.730402
 21
137.777479
 31
0.0
100
AcDbText
  0
TEXT
  5
2598
100
AcDbEntity
  8
BORDER
 62
     6
100
AcDbText
 10
229.234028
 20
138.465053
 30
0.0
 40
0.424678
  1
and will not be used to manufacture or procure the manufacture of the items shown
 41
0.600404
  7
ROMANS
 72
     5
 11
246.730402
 21
138.465053
 31
0.0
100
AcDbText
  0
TEXT
  5
2599
100
AcDbEntity
  8
BORDER
 62
     6
100
AcDbText
 10
229.234028
 20
139.152627
 30
0.0
 40
0.424678
  1
be used as a record or to identify or inspect parts or for other information purposes
 41
0.596266
  7
ROMANS
 72
     5
 11
246.730402
 21
139.152627
 31
0.0
100
AcDbText
  0
TEXT
  5
259A
100
AcDbEntity
  8
BORDER
 62
     6
100
AcDbText
 10
229.234028
 20
139.840201
 30
0.0
 40
0.424678
  1
restriction includes, but is not limited to the condition that this print will not only
 41
0.626489
  7
ROMANS
 72
     5
 11
246.730402
 21
139.840201
 31
0.0
100
AcDbText
  0
TEXT
  5
259B
100
AcDbEntity
  8
BORDER
 62
     6
100
AcDbText
 10
229.234028
 20
140.527775
 30
0.0
 40
0.424678
  1
by TOPP INDUSTRIES, INC. It is furnished on a strictly confidential basis.  This
 41
0.659437
  7
ROMANS
 72
     5
 11
246.730402
 21
140.527775
 31
0.0
100
AcDbText
  0
TEXT
  5
259C
100
AcDbEntity
  8
BORDER
 62
     6
100
AcDbText
 10
229.234028
 20
141.21535
 30
0.0
 40
0.424678
  1
This print is and contains confidential proprietary information owned exclusively
 41
0.656934
  7
ROMANS
 72
     5
 11
246.730402
 21
141.21535
 31
0.0
100
AcDbText
  0
LINE
  5
259D
100
AcDbEntity
  8
BORDER
100
AcDbLine
 10
234.273171
 20
134.072658
 30
0.0
 11
247.038089
 21
134.072658
 31
0.0
  0
LINE
  5
259E
100
AcDbEntity
  8
BORDER
100
AcDbLine
 10
234.273171
 20
136.654287
 30
0.0
 11
247.038089
 21
136.654287
 31
0.0
  0
LINE
  5
259F
100
AcDbEntity
  8
BORDER
100
AcDbLine
 10
234.273171
 20
136.654287
 30
0.0
 11
234.273171
 21
134.072658
 31
0.0
  0
LINE
  5
25A0
100
AcDbEntity
  8
BORDER
100
AcDbLine
 10
233.460372
 20
136.654287
 30
0.0
 11
233.460372
 21
134.072658
 31
0.0
  0
TEXT
  5
25A3
100
AcDbEntity
  8
BORDER
 62
     6
100
AcDbText
 10
226.841399
 20
134.640907
 30
0.0
 40
0.512896
  1
10/09/03
  7
ROMANS
100
AcDbText
  0
TEXT
  5
25A4
100
AcDbEntity
  8
BORDER
 62
     6
100
AcDbText
 10
225.739511
 20
140.000559
 30
0.0
 40
0.692411
  1
RM
  7
COUNTRYBLUEPRINT
100
AcDbText
  0
TEXT
  5
25A5
100
AcDbEntity
  8
BORDER
 62
     6
100
AcDbText
 10
234.367372
 20
134.813683
 30
0.0
 40
0.533412
  1
No:
  7
ROMANS
100
AcDbText
  0
TEXT
  5
25A6
100
AcDbEntity
  8
BORDER
 62
     6
100
AcDbText
 10
234.367372
 20
135.8822
 30
0.0
 40
0.533412
  1
Reference
  7
ROMANS
100
AcDbText
  0
TEXT
  5
25A8
100
AcDbEntity
  8
BORDER
 62
     6
100
AcDbText
 10
238.345927
 20
134.516476
 30
0.0
 40
1.55925
  1
10093
  7
ROMAND
100
AcDbText
  0
LINE
  5
25A9
100
AcDbEntity
  8
BORDER
100
AcDbLine
 10
247.038089
 20
136.654287
 30
0.0
 11
247.038089
 21
134.072658
 31
0.0
  0
LINE
  5
25AA
100
AcDbEntity
  8
BORDER
100
AcDbLine
 10
250.432518
 20
134.072658
 30
0.0
 11
250.432518
 21
140.861516
 31
0.0
  0
LWPOLYLINE
  5
25AB
100
AcDbEntity
  8
BORDER
 62
     5
100
AcDbPolyline
 90
        2
 70
     0
 43
0.565738
 10
249.301042
 20
134.072658
 10
249.301042
 20
140.861516
  0
LWPOLYLINE
  5
25AC
100
AcDbEntity
  8
BORDER
 62
     5
100
AcDbPolyline
 90
        2
 70
     0
 43
0.565738
 10
248.169565
 20
134.072658
 10
248.169565
 20
140.861516
  0
LWPOLYLINE
  5
25AD
100
AcDbEntity
  8
BORDER
 62
     5
100
AcDbPolyline
 90
        2
 70
     0
 43
0.565738
 10
245.906612
 20
143.124469
 42
-0.414214
 10
248.169565
 20
140.861516
 42
0.560527
  0
LINE
  5
25AE
100
AcDbEntity
  8
BORDER
100
AcDbLine
 10
247.038089
 20
140.861516
 30
0.0
 11
247.038089
 21
137.467087
 31
0.0
  0
ARC
  5
25AF
100
AcDbEntity
  8
BORDER
100
AcDbCircle
 10
245.906612
 20
140.861516
 30
0.0
 40
1.131476
100
AcDbArc
 50
0.0
 51
90.0
  0
LINE
  5
25B0
100
AcDbEntity
  8
BORDER
100
AcDbLine
 10
251.563995
 20
139.973742
 30
0.0
 11
251.563995
 21
135.447836
 31
0.0
  0
ARC
  5
25B1
100
AcDbEntity
  8
BORDER
100
AcDbCircle
 10
251.563995
 20
140.861516
 30
0.0
 40
1.131476
100
AcDbArc
 50
90.0
 51
180.0
  0
LINE
  5
25B2
100
AcDbEntity
  8
OBJECT
100
AcDbLine
 10
251.177929
 20
183.658473
 30
0.0
 11
233.177929
 21
183.658473
 31
0.0
  0
LINE
  5
25B3
100
AcDbEntity
  8
OBJECT
100
AcDbLine
 10
238.965567
 20
190.039304
 30
0.0
 11
239.853957
 21
189.551291
 31
0.0
  0
LINE
  5
25B4
100
AcDbEntity
  8
OBJECT
100
AcDbLine
 10
238.444145
 20
189.321627
 30
0.0
 11
239.1828
 21
188.627522
 31
0.0
  0
LINE
  5
25BD
100
AcDbEntity
  8
CENTER
100
AcDbLine
 10
235.452383
 20
185.158473
 30
0.0
 11
233.903475
 21
185.158473
 31
0.0
  0
LINE
  5
25BE
100
AcDbEntity
  8
CENTER
100
AcDbLine
 10
234.677929
 20
185.932927
 30
0.0
 11
234.677929
 21
184.384019
 31
0.0
  0
CIRCLE
  5
25BF
100
AcDbEntity
  8
OBJECT
100
AcDbCircle
 10
234.677929
 20
185.158473
 30
0.0
 40
0.375
  0
LINE
  5
25C0
100
AcDbEntity
  8
OBJECT
100
AcDbLine
 10
239.010928
 20
188.789028
 30
0.0
 11
238.98175
 21
188.748867
 31
0.0
  0
LINE
  5
25C1
100
AcDbEntity
  8
OBJECT
100
AcDbLine
 10
238.521385
 20
190.12047
 30
0.0
 11
238.16224
 21
190.003777
 31
0.0
  0
ARC
  5
25C2
100
AcDbEntity
  8
OBJECT
100
AcDbCircle
 10
238.082893
 20
190.247979
 30
0.0
 40
0.25677
100
AcDbArc
 50
205.219021
 51
288.0
  0
LINE
  5
25C3
100
AcDbEntity
  8
OBJECT
100
AcDbLine
 10
237.850597
 20
190.138575
 30
0.0
 11
237.418721
 21
191.055568
 31
0.0
  0
ARC
  5
25C4
100
AcDbEntity
  8
OBJECT
100
AcDbCircle
 10
238.619978
 20
189.508746
 30
0.0
 40
0.25677
100
AcDbArc
 50
144.0
 51
226.780979
  0
LINE
  5
25C5
100
AcDbEntity
  8
OBJECT
100
AcDbLine
 10
238.634211
 20
189.965179
 30
0.0
 11
238.412247
 21
189.659672
 31
0.0
  0
ARC
  5
25C6
100
AcDbEntity
  8
OBJECT
100
AcDbCircle
 10
238.841942
 20
189.814254
 30
0.0
 40
0.25677
100
AcDbArc
 50
61.219021
 51
144.0
  0
ARC
  5
25C7
100
AcDbEntity
  8
OBJECT
100
AcDbCircle
 10
238.442039
 20
190.364673
 30
0.0
 40
0.25677
100
AcDbArc
 50
288.0
 51
10.780979
  0
TEXT
  5
25C8
100
AcDbEntity
  8
DIM
100
AcDbText
 10
245.209524
 20
178.755644
 30
0.0
 40
0.75
  1
A
  7
ROMANS
100
AcDbText
  0
ARC
  5
25C9
100
AcDbEntity
  8
OBJECT
100
AcDbCircle
 10
245.913819
 20
190.364673
 30
0.0
 40
0.25677
100
AcDbArc
 50
169.219021
 51
252.0
  0
ARC
  5
25CA
100
AcDbEntity
  8
OBJECT
100
AcDbCircle
 10
245.513916
 20
189.814254
 30
0.0
 40
0.25677
100
AcDbArc
 50
36.0
 51
118.780979
  0
LINE
  5
25CB
100
AcDbEntity
  8
OBJECT
100
AcDbLine
 10
245.911714
 20
189.321627
 30
0.0
 11
245.173059
 21
188.627522
 31
0.0
  0
LEADER
  5
25CC
100
AcDbEntity
  8
DIM
100
AcDbLeader
  3
STANDARD
 76
     2
 10
244.68912
 20
179.091601
 30
0.0
 10
242.177929
 20
179.091601
 30
0.0
 77
   256
211
-1.0
221
0.0000000000000001
231
0.0
1001
ACAD
1000
DSTYLE
1002
{
1070
    78
1070
    12
1070
   284
1070
    12
1070
   140
1040
0.5
1070
   340
1005
26
1070
   272
1070
     0
1070
   147
1040
0.375
1070
   287
1070
     5
1070
    41
1040
0.35
1002
}
  0
LINE
  5
25CD
100
AcDbEntity
  8
DIM
100
AcDbLine
 10
242.177929
 20
181.837758
 30
0.0
 11
242.177929
 21
179.091601
 31
0.0
  0
CIRCLE
  5
25CE
100
AcDbEntity
  8
OBJECT
100
AcDbCircle
 10
242.177929
 20
185.158473
 30
0.0
 40
0.375
  0
LINE
  5
25CF
100
AcDbEntity
  8
CENTER
100
AcDbLine
 10
242.952383
 20
185.158473
 30
0.0
 11
241.403475
 21
185.158473
 31
0.0
  0
LWPOLYLINE
  5
25D0
100
AcDbEntity
  8
OBJECT
100
AcDbPolyline
 90
        6
 70
     1
 43
0.0
 10
241.930852
 20
188.635743
 10
241.683775
 20
188.207793
 10
241.930852
 20
187.779843
 10
242.425006
 20
187.779843
 10
242.672083
 20
188.207793
 10
242.425006
 20
188.635743
  0
LINE
  5
25D1
100
AcDbEntity
  8
OBJECT
100
AcDbLine
 10
243.237276
 20
187.764244
 30
0.0
 11
242.231706
 21
187.636872
 31
0.0
  0
LINE
  5
25D2
100
AcDbEntity
  8
OBJECT
100
AcDbLine
 10
243.237276
 20
188.651342
 30
0.0
 11
242.231706
 21
188.778714
 31
0.0
  0
LINE
  5
25D3
100
AcDbEntity
  8
CENTER
100
AcDbLine
 10
242.177929
 20
185.932927
 30
0.0
 11
242.177929
 21
184.384019
 31
0.0
  0
LINE
  5
25D4
100
AcDbEntity
  8
OBJECT
100
AcDbLine
 10
240.711524
 20
188.455923
 30
0.0
 11
240.489559
 21
188.150416
 31
0.0
  0
ARC
  5
25D5
100
AcDbEntity
  8
OBJECT
100
AcDbCircle
 10
240.503792
 20
188.606849
 30
0.0
 40
0.25677
100
AcDbArc
 50
324.0
 51
46.780979
  0
LINE
  5
25D6
100
AcDbEntity
  8
OBJECT
100
AcDbLine
 10
240.679626
 20
188.793968
 30
0.0
 11
239.940971
 21
189.488072
 31
0.0
  0
LWPOLYLINE
  5
25D7
100
AcDbEntity
  8
OBJECT
100
AcDbPolyline
 90
        6
 70
     1
 43
0.0
 10
239.613538
 20
189.549244
 10
239.162106
 20
189.348254
 10
239.110453
 20
188.856807
 10
239.510232
 20
188.56635
 10
239.961664
 20
188.767341
 10
240.013317
 20
189.258788
  0
LINE
  5
25D8
100
AcDbEntity
  8
OBJECT
100
AcDbLine
 10
240.158203
 20
188.076291
 30
0.0
 11
239.269813
 21
188.564303
 31
0.0
  0
ARC
  5
25D9
100
AcDbEntity
  8
OBJECT
100
AcDbCircle
 10
239.475855
 20
188.939387
 30
0.0
 40
0.42795
100
AcDbArc
 50
226.780979
 51
241.219021
  0
ARC
  5
25DA
100
AcDbEntity
  8
OBJECT
100
AcDbCircle
 10
240.281828
 20
188.301341
 30
0.0
 40
0.25677
100
AcDbArc
 50
241.219021
 51
324.0
  0
ARC
  5
25DB
100
AcDbEntity
  8
OBJECT
100
AcDbCircle
 10
239.647915
 20
189.176208
 30
0.0
 40
0.42795
100
AcDbArc
 50
46.780979
 51
61.219021
  0
LINE
  5
25DC
100
AcDbEntity
  8
OBJECT
100
AcDbLine
 10
239.687573
 20
189.72035
 30
0.0
 11
239.647245
 21
189.664843
 31
0.0
  0
LINE
  5
25DD
100
AcDbEntity
  8
OBJECT
100
AcDbLine
 10
241.118583
 20
187.764244
 30
0.0
 11
242.124152
 21
187.636872
 31
0.0
  0
LINE
  5
25DE
100
AcDbEntity
  8
OBJECT
100
AcDbLine
 10
241.118583
 20
188.651342
 30
0.0
 11
242.124152
 21
188.778714
 31
0.0
  0
ARC
  5
25DF
100
AcDbEntity
  8
OBJECT
100
AcDbCircle
 10
241.150849
 20
188.396607
 30
0.0
 40
0.25677
100
AcDbArc
 50
97.219021
 51
180.0
  0
LINE
  5
25E0
100
AcDbEntity
  8
OBJECT
100
AcDbLine
 10
240.894079
 20
188.396607
 30
0.0
 11
240.894079
 21
188.018979
 31
0.0
  0
ARC
  5
25E1
100
AcDbEntity
  8
OBJECT
100
AcDbCircle
 10
241.150849
 20
188.018979
 30
0.0
 40
0.25677
100
AcDbArc
 50
180.0
 51
262.780979
  0
LINE
  5
25E2
100
AcDbEntity
  8
OBJECT
100
AcDbLine
 10
241.890174
 20
187.66651
 30
0.0
 11
241.890174
 21
187.616868
 31
0.0
  0
LINE
  5
25E3
100
AcDbEntity
  8
OBJECT
100
AcDbLine
 10
241.890174
 20
188.817687
 30
0.0
 11
241.890174
 21
188.749077
 31
0.0
  0
ARC
  5
25E4
100
AcDbEntity
  8
OBJECT
100
AcDbCircle
 10
242.177929
 20
188.06143
 30
0.0
 40
0.42795
100
AcDbArc
 50
262.780979
 51
277.219021
  0
ARC
  5
25E5
100
AcDbEntity
  8
OBJECT
100
AcDbCircle
 10
242.177929
 20
188.354156
 30
0.0
 40
0.42795
100
AcDbArc
 50
82.780979
 51
97.219021
  0
LINE
  5
25E6
100
AcDbEntity
  8
CENTER
100
AcDbLine
 10
242.177929
 20
188.806923
 30
0.0
 11
242.177929
 21
187.608663
 31
0.0
  0
ARC
  5
25E7
100
AcDbEntity
  8
OBJECT
100
AcDbCircle
 10
244.07403
 20
188.301341
 30
0.0
 40
0.25677
100
AcDbArc
 50
216.0
 51
298.780979
  0
LINE
  5
25E8
100
AcDbEntity
  8
OBJECT
100
AcDbLine
 10
243.676233
 20
188.793968
 30
0.0
 11
244.414888
 21
189.488072
 31
0.0
  0
LINE
  5
25E9
100
AcDbEntity
  8
OBJECT
100
AcDbLine
 10
243.644335
 20
188.455923
 30
0.0
 11
243.866299
 21
188.150416
 31
0.0
  0
ARC
  5
25EA
100
AcDbEntity
  8
OBJECT
100
AcDbCircle
 10
243.852066
 20
188.606849
 30
0.0
 40
0.25677
100
AcDbArc
 50
133.219021
 51
216.0
  0
ARC
  5
25EB
100
AcDbEntity
  8
OBJECT
100
AcDbCircle
 10
243.205009
 20
188.396607
 30
0.0
 40
0.25677
100
AcDbArc
 50
0.0
 51
82.780979
  0
ARC
  5
25EC
100
AcDbEntity
  8
OBJECT
100
AcDbCircle
 10
243.205009
 20
188.018979
 30
0.0
 40
0.25677
100
AcDbArc
 50
277.219021
 51
0.0
  0
LINE
  5
25ED
100
AcDbEntity
  8
OBJECT
100
AcDbLine
 10
243.461779
 20
188.396607
 30
0.0
 11
243.461779
 21
188.018979
 31
0.0
  0
LWPOLYLINE
  5
25EE
100
AcDbEntity
  8
OBJECT
100
AcDbPolyline
 90
        6
 70
     1
 43
0.0
 10
244.342541
 20
189.258788
 10
244.394194
 20
188.767341
 10
244.845626
 20
188.56635
 10
245.245405
 20
188.856807
 10
245.193752
 20
189.348254
 10
244.74232
 20
189.549244
  0
LINE
  5
25EF
100
AcDbEntity
  8
OBJECT
100
AcDbLine
 10
244.197655
 20
188.076291
 30
0.0
 11
245.086045
 21
188.564303
 31
0.0
  0
LINE
  5
25F0
100
AcDbEntity
  8
OBJECT
100
AcDbLine
 10
244.879333
 20
188.450752
 30
0.0
 11
244.908511
 21
188.410591
 31
0.0
  0
ARC
  5
25F1
100
AcDbEntity
  8
OBJECT
100
AcDbCircle
 10
244.880003
 20
188.939387
 30
0.0
 40
0.42795
100
AcDbArc
 50
298.780979
 51
313.219021
  0
LINE
  5
25F2
100
AcDbEntity
  8
OBJECT
100
AcDbLine
 10
245.390291
 20
190.039304
 30
0.0
 11
244.501901
 21
189.551291
 31
0.0
  0
LINE
  5
25F3
100
AcDbEntity
  8
OBJECT
100
AcDbLine
 10
244.202688
 20
189.382074
 30
0.0
 11
244.243016
 21
189.326567
 31
0.0
  0
ARC
  5
25F4
100
AcDbEntity
  8
OBJECT
100
AcDbCircle
 10
244.707943
 20
189.176208
 30
0.0
 40
0.42795
100
AcDbArc
 50
118.780979
 51
133.219021
  0
LINE
  5
25F5
100
AcDbEntity
  8
CENTER
100
AcDbLine
 10
250.452383
 20
185.158473
 30
0.0
 11
248.903475
 21
185.158473
 31
0.0
  0
ARC
  5
25F6
100
AcDbEntity
  8
OBJECT
100
AcDbCircle
 10
246.272965
 20
190.247979
 30
0.0
 40
0.25677
100
AcDbArc
 50
252.0
 51
334.780979
  0
LINE
  5
25F7
100
AcDbEntity
  8
OBJECT
100
AcDbLine
 10
246.505261
 20
190.138575
 30
0.0
 11
246.937137
 21
191.055568
 31
0.0
  0
LINE
  5
25F8
100
AcDbEntity
  8
OBJECT
100
AcDbLine
 10
245.834473
 20
190.12047
 30
0.0
 11
246.193619
 21
190.003777
 31
0.0
  0
ARC
  5
25F9
100
AcDbEntity
  8
OBJECT
100
AcDbCircle
 10
245.735881
 20
189.508746
 30
0.0
 40
0.25677
100
AcDbArc
 50
313.219021
 51
36.0
  0
LINE
  5
25FA
100
AcDbEntity
  8
OBJECT
100
AcDbLine
 10
245.721648
 20
189.965179
 30
0.0
 11
245.943612
 21
189.659672
 31
0.0
  0
LINE
  5
25FB
100
AcDbEntity
  8
OBJECT
100
AcDbLine
 10
246.836647
 20
190.8422
 30
0.0
 11
246.883859
 21
190.82686
 31
0.0
  0
LINE
  5
25FC
100
AcDbEntity
  8
CENTER
100
AcDbLine
 10
249.677929
 20
185.932927
 30
0.0
 11
249.677929
 21
184.384019
 31
0.0
  0
CIRCLE
  5
25FD
100
AcDbEntity
  8
OBJECT
100
AcDbCircle
 10
249.677929
 20
185.158473
 30
0.0
 40
0.375
  0
LWPOLYLINE
  5
25FE
100
AcDbEntity
  8
BORDER
 62
     5
100
AcDbPolyline
 90
        2
 70
     0
 43
0.565738
 10
264.010235
 20
143.124469
 42
-0.414214
 10
266.273188
 20
140.861516
 42
0.560527
  0
ARC
  5
25FF
100
AcDbEntity
  8
BORDER
100
AcDbCircle
 10
264.010235
 20
140.861516
 30
0.0
 40
1.131476
100
AcDbArc
 50
0.0
 51
90.0
  0
LWPOLYLINE
  5
2600
100
AcDbEntity
  8
BORDER
 62
     5
100
AcDbPolyline
 90
        2
 70
     0
 43
0.565738
 10
264.010235
 20
132.941181
 42
0.414214
 10
266.273188
 20
135.204134
 42
-0.560527
  0
ARC
  5
2601
100
AcDbEntity
  8
BORDER
100
AcDbCircle
 10
264.010235
 20
135.204134
 30
0.0
 40
1.131476
100
AcDbArc
 50
270.0
 51
0.0
  0
TEXT
  5
2603
100
AcDbEntity
  8
BORDER
 62
     6
100
AcDbText
 10
255.346305
 20
140.57208
 30
0.0
 40
0.680157
  1
Revisions
  7
ROMANS
100
AcDbText
  0
TEXT
  5
2604
100
AcDbEntity
  8
BORDER
 62
     6
100
AcDbText
 10
253.891251
 20
139.095436
 30
0.0
 40
0.512896
  1
First Released.
  7
ROMANS
100
AcDbText
  0
LINE
  5
2605
100
AcDbEntity
  8
BORDER
100
AcDbLine
 10
252.695471
 20
139.973742
 30
0.0
 11
252.695471
 21
135.447836
 31
0.0
  0
TEXT
  5
2606
100
AcDbEntity
  8
BORDER
 62
     6
100
AcDbText
 10
251.860878
 20
139.1261
 30
0.0
 40
0.565738
  1
1
  7
ROMAND
100
AcDbText
  0
LINE
  5
2607
100
AcDbEntity
  8
BORDER
100
AcDbLine
 10
264.010235
 20
139.973742
 30
0.0
 11
264.010235
 21
135.447836
 31
0.0
  0
LWPOLYLINE
  5
2608
100
AcDbEntity
  8
BORDER
 62
     5
100
AcDbPolyline
 90
        2
 70
     0
 43
0.565738
 10
266.273188
 20
140.861516
 10
266.273188
 20
135.204134
  0
LINE
  5
2609
100
AcDbEntity
  8
BORDER
100
AcDbLine
 10
265.141711
 20
135.204134
 30
0.0
 11
265.141711
 21
140.861516
 31
0.0
  0
LINE
  5
260A
100
AcDbEntity
  8
OBJECT
100
AcDbLine
 10
251.177929
 20
201.658473
 30
0.0
 11
233.177929
 21
201.658473
 31
0.0
  0
LINE
  5
260B
100
AcDbEntity
  8
CENTER
100
AcDbLine
 10
251.993958
 20
192.658473
 30
0.0
 11
232.361901
 21
192.658473
 31
0.0
  0
LINE
  5
260C
100
AcDbEntity
  8
OBJECT
100
AcDbLine
 10
238.965567
 20
195.277642
 30
0.0
 11
239.853957
 21
195.765655
 31
0.0
  0
LINE
  5
260D
100
AcDbEntity
  8
OBJECT
100
AcDbLine
 10
238.444145
 20
195.995319
 30
0.0
 11
239.1828
 21
196.689424
 31
0.0
  0
LINE
  5
260E
100
AcDbEntity
  8
CENTER
100
AcDbLine
 10
234.677929
 20
200.932927
 30
0.0
 11
234.677929
 21
199.384019
 31
0.0
  0
LINE
  5
260F
100
AcDbEntity
  8
CENTER
100
AcDbLine
 10
236.202383
 20
192.658473
 30
0.0
 11
234.653475
 21
192.658473
 31
0.0
  0
LINE
  5
2610
100
AcDbEntity
  8
CENTER
100
AcDbLine
 10
234.677929
 20
193.432927
 30
0.0
 11
234.677929
 21
191.884019
 31
0.0
  0
CIRCLE
  5
2611
100
AcDbEntity
  8
OBJECT
100
AcDbCircle
 10
234.677929
 20
192.658473
 30
0.0
 40
0.375
  0
LINE
  5
2612
100
AcDbEntity
  8
OBJECT
100
AcDbLine
 10
238.634211
 20
195.351767
 30
0.0
 11
238.412247
 21
195.657275
 31
0.0
  0
LINE
  5
2613
100
AcDbEntity
  8
OBJECT
100
AcDbLine
 10
237.727922
 20
192.562498
 30
0.0
 11
237.368777
 21
192.445805
 31
0.0
  0
LINE
  5
2614
100
AcDbEntity
  8
OBJECT
100
AcDbLine
 10
237.727922
 20
192.754448
 30
0.0
 11
237.368777
 21
192.871142
 31
0.0
  0
ARC
  5
2615
100
AcDbEntity
  8
OBJECT
100
AcDbCircle
 10
237.805881
 20
194.079038
 30
0.0
 40
0.42795
100
AcDbArc
 50
154.780979
 51
169.219021
  0
LINE
  5
2616
100
AcDbEntity
  8
OBJECT
100
AcDbLine
 10
237.195885
 20
193.163375
 30
0.0
 11
237.385485
 21
194.159088
 31
0.0
  0
LINE
  5
2617
100
AcDbEntity
  8
OBJECT
100
AcDbLine
 10
237.341369
 20
191.389543
 30
0.0
 11
237.294157
 21
191.374203
 31
0.0
  0
ARC
  5
2618
100
AcDbEntity
  8
OBJECT
100
AcDbCircle
 10
237.448123
 20
192.201602
 30
0.0
 40
0.25677
100
AcDbArc
 50
108.0
 51
190.780979
  0
LINE
  5
2619
100
AcDbEntity
  8
OBJECT
100
AcDbLine
 10
237.195885
 20
192.153572
 30
0.0
 11
237.385485
 21
191.157858
 31
0.0
  0
ARC
  5
261A
100
AcDbEntity
  8
OBJECT
100
AcDbCircle
 10
237.448123
 20
193.115344
 30
0.0
 40
0.25677
100
AcDbArc
 50
169.219021
 51
252.0
  0
LINE
  5
261B
100
AcDbEntity
  8
OBJECT
100
AcDbLine
 10
238.039565
 20
192.889247
 30
0.0
 11
238.471441
 21
193.806239
 31
0.0
  0
LINE
  5
261C
100
AcDbEntity
  8
OBJECT
100
AcDbLine
 10
238.039565
 20
192.4277
 30
0.0
 11
238.471441
 21
191.510707
 31
0.0
  0
ARC
  5
261D
100
AcDbEntity
  8
OBJECT
100
AcDbCircle
 10
237.807269
 20
192.318295
 30
0.0
 40
0.25677
100
AcDbArc
 50
25.219021
 51
108.0
  0
ARC
  5
261E
100
AcDbEntity
  8
OBJECT
100
AcDbCircle
 10
237.807269
 20
192.998651
 30
0.0
 40
0.25677
100
AcDbArc
 50
252.0
 51
334.780979
  0
LINE
  5
261F
100
AcDbEntity
  8
OBJECT
100
AcDbLine
 10
238.436204
 20
191.745276
 30
0.0
 11
238.370951
 21
191.724074
 31
0.0
  0
ARC
  5
2620
100
AcDbEntity
  8
OBJECT
100
AcDbCircle
 10
238.08428
 20
191.328366
 30
0.0
 40
0.42795
100
AcDbArc
 50
10.780979
 51
25.219021
  0
LINE
  5
2621
100
AcDbEntity
  8
OBJECT
100
AcDbLine
 10
238.521385
 20
195.196476
 30
0.0
 11
238.16224
 21
195.31317
 31
0.0
  0
LWPOLYLINE
  5
2622
100
AcDbEntity
  8
OBJECT
100
AcDbPolyline
 90
        6
 70
     1
 43
0.0
 10
238.428437
 20
194.136549
 10
238.097783
 20
194.503777
 10
237.614427
 20
194.401037
 10
237.461725
 20
193.931068
 10
237.792379
 20
193.56384
 10
238.275735
 20
193.666581
  0
LINE
  5
2623
100
AcDbEntity
  8
OBJECT
100
AcDbLine
 10
237.519211
 20
194.474746
 30
0.0
 11
237.471999
 21
194.490086
 31
0.0
  0
ARC
  5
2624
100
AcDbEntity
  8
OBJECT
100
AcDbCircle
 10
238.082893
 20
195.068967
 30
0.0
 40
0.25677
100
AcDbArc
 50
72.0
 51
154.780979
  0
LINE
  5
2625
100
AcDbEntity
  8
OBJECT
100
AcDbLine
 10
237.850597
 20
195.178371
 30
0.0
 11
237.418721
 21
194.261378
 31
0.0
  0
LINE
  5
2626
100
AcDbEntity
  8
OBJECT
100
AcDbLine
 10
238.614046
 20
194.119012
 30
0.0
 11
238.548793
 21
194.140214
 31
0.0
  0
ARC
  5
2627
100
AcDbEntity
  8
OBJECT
100
AcDbCircle
 10
238.442039
 20
194.952273
 30
0.0
 40
0.25677
100
AcDbArc
 50
349.219021
 51
72.0
  0
LINE
  5
2628
100
AcDbEntity
  8
OBJECT
100
AcDbLine
 10
238.694277
 20
194.904243
 30
0.0
 11
238.504677
 21
193.90853
 31
0.0
  0
ARC
  5
2629
100
AcDbEntity
  8
OBJECT
100
AcDbCircle
 10
238.08428
 20
193.98858
 30
0.0
 40
0.42795
100
AcDbArc
 50
334.780979
 51
349.219021
  0
ARC
  5
262A
100
AcDbEntity
  8
OBJECT
100
AcDbCircle
 10
238.841942
 20
195.502693
 30
0.0
 40
0.25677
100
AcDbArc
 50
216.0
 51
298.780979
  0
ARC
  5
262B
100
AcDbEntity
  8
OBJECT
100
AcDbCircle
 10
238.619978
 20
195.8082
 30
0.0
 40
0.25677
100
AcDbArc
 50
133.219021
 51
216.0
  0
LINE
  5
262C
100
AcDbEntity
  8
CENTER
100
AcDbLine
 10
235.452383
 20
200.158473
 30
0.0
 11
233.903475
 21
200.158473
 31
0.0
  0
CIRCLE
  5
262D
100
AcDbEntity
  8
OBJECT
100
AcDbCircle
 10
234.677929
 20
200.158473
 30
0.0
 40
0.375
  0
TEXT
  5
262E
100
AcDbEntity
  8
DIM
100
AcDbText
 10
245.167851
 20
206.066723
 30
0.0
 40
0.75
  1
A
  7
ROMANS
100
AcDbText
  0
ARC
  5
262F
100
AcDbEntity
  8
OBJECT
100
AcDbCircle
 10
245.513916
 20
195.502693
 30
0.0
 40
0.25677
100
AcDbArc
 50
241.219021
 51
324.0
  0
LINE
  5
2630
100
AcDbEntity
  8
OBJECT
100
AcDbLine
 10
245.911714
 20
195.995319
 30
0.0
 11
245.173059
 21
196.689424
 31
0.0
  0
ARC
  5
2631
100
AcDbEntity
  8
OBJECT
100
AcDbCircle
 10
245.913819
 20
194.952273
 30
0.0
 40
0.25677
100
AcDbArc
 50
108.0
 51
190.780979
  0
LINE
  5
2632
100
AcDbEntity
  8
OBJECT
100
AcDbLine
 10
245.661582
 20
194.904243
 30
0.0
 11
245.851181
 21
193.90853
 31
0.0
  0
LINE
  5
2633
100
AcDbEntity
  8
CENTER
100
AcDbLine
 10
242.177929
 20
200.932927
 30
0.0
 11
242.177929
 21
199.384019
 31
0.0
  0
LINE
  5
2634
100
AcDbEntity
  8
OBJECT
100
AcDbLine
 10
243.237276
 20
196.665604
 30
0.0
 11
242.231706
 21
196.538232
 31
0.0
  0
LINE
  5
2635
100
AcDbEntity
  8
OBJECT
100
AcDbLine
 10
243.237276
 20
197.552702
 30
0.0
 11
242.231706
 21
197.680074
 31
0.0
  0
LWPOLYLINE
  5
2636
100
AcDbEntity
  8
OBJECT
100
AcDbPolyline
 90
        6
 70
     1
 43
0.0
 10
242.425006
 20
196.681203
 10
242.672083
 20
197.109153
 10
242.425006
 20
197.537103
 10
241.930852
 20
197.537103
 10
241.683775
 20
197.109153
 10
241.930852
 20
196.681203
  0
LINE
  5
2637
100
AcDbEntity
  8
OBJECT
100
AcDbLine
 10
240.711524
 20
196.861023
 30
0.0
 11
240.489559
 21
197.166531
 31
0.0
  0
ARC
  5
2638
100
AcDbEntity
  8
OBJECT
100
AcDbCircle
 10
240.503792
 20
196.710098
 30
0.0
 40
0.25677
100
AcDbArc
 50
313.219021
 51
36.0
  0
ARC
  5
2639
100
AcDbEntity
  8
OBJECT
100
AcDbCircle
 10
239.647915
 20
196.140739
 30
0.0
 40
0.42795
100
AcDbArc
 50
298.780979
 51
313.219021
  0
LINE
  5
263A
100
AcDbEntity
  8
OBJECT
100
AcDbLine
 10
240.158203
 20
197.240655
 30
0.0
 11
239.269813
 21
196.752643
 31
0.0
  0
LWPOLYLINE
  5
263B
100
AcDbEntity
  8
OBJECT
100
AcDbPolyline
 90
        6
 70
     1
 43
0.0
 10
240.013317
 20
196.058158
 10
239.961664
 20
196.549605
 10
239.510232
 20
196.750596
 10
239.110453
 20
196.460139
 10
239.162106
 20
195.968692
 10
239.613538
 20
195.767702
  0
LINE
  5
263C
100
AcDbEntity
  8
OBJECT
100
AcDbLine
 10
239.476525
 20
196.866195
 30
0.0
 11
239.447347
 21
196.906355
 31
0.0
  0
ARC
  5
263D
100
AcDbEntity
  8
OBJECT
100
AcDbCircle
 10
239.475855
 20
196.377559
 30
0.0
 40
0.42795
100
AcDbArc
 50
118.780979
 51
133.219021
  0
LINE
  5
263E
100
AcDbEntity
  8
OBJECT
100
AcDbLine
 10
240.153171
 20
195.934872
 30
0.0
 11
240.112842
 21
195.990379
 31
0.0
  0
ARC
  5
263F
100
AcDbEntity
  8
OBJECT
100
AcDbCircle
 10
240.281828
 20
197.015605
 30
0.0
 40
0.25677
100
AcDbArc
 50
36.0
 51
118.780979
  0
LINE
  5
2640
100
AcDbEntity
  8
OBJECT
100
AcDbLine
 10
240.679626
 20
196.522979
 30
0.0
 11
239.940971
 21
195.828874
 31
0.0
  0
LINE
  5
2641
100
AcDbEntity
  8
CENTER
100
AcDbLine
 10
242.177929
 20
196.510023
 30
0.0
 11
242.177929
 21
197.708283
 31
0.0
  0
ARC
  5
2642
100
AcDbEntity
  8
OBJECT
100
AcDbCircle
 10
241.150849
 20
197.297967
 30
0.0
 40
0.25677
100
AcDbArc
 50
97.219021
 51
180.0
  0
LINE
  5
2643
100
AcDbEntity
  8
OBJECT
100
AcDbLine
 10
241.118583
 20
197.552702
 30
0.0
 11
242.124152
 21
197.680074
 31
0.0
  0
LINE
  5
2644
100
AcDbEntity
  8
OBJECT
100
AcDbLine
 10
241.118583
 20
196.665604
 30
0.0
 11
242.124152
 21
196.538232
 31
0.0
  0
LINE
  5
2645
100
AcDbEntity
  8
OBJECT
100
AcDbLine
 10
240.894079
 20
196.920339
 30
0.0
 11
240.894079
 21
197.297967
 31
0.0
  0
ARC
  5
2646
100
AcDbEntity
  8
OBJECT
100
AcDbCircle
 10
241.150849
 20
196.920339
 30
0.0
 40
0.25677
100
AcDbArc
 50
180.0
 51
262.780979
  0
ARC
  5
2647
100
AcDbEntity
  8
OBJECT
100
AcDbCircle
 10
242.177929
 20
196.96279
 30
0.0
 40
0.42795
100
AcDbArc
 50
262.780979
 51
277.219021
  0
ARC
  5
2648
100
AcDbEntity
  8
OBJECT
100
AcDbCircle
 10
242.177929
 20
197.255516
 30
0.0
 40
0.42795
100
AcDbArc
 50
82.780979
 51
97.219021
  0
LINE
  5
2649
100
AcDbEntity
  8
OBJECT
100
AcDbLine
 10
245.390291
 20
195.277642
 30
0.0
 11
244.501901
 21
195.765655
 31
0.0
  0
ARC
  5
264A
100
AcDbEntity
  8
OBJECT
100
AcDbCircle
 10
244.07403
 20
197.015605
 30
0.0
 40
0.25677
100
AcDbArc
 50
61.219021
 51
144.0
  0
LINE
  5
264B
100
AcDbEntity
  8
OBJECT
100
AcDbLine
 10
243.676233
 20
196.522979
 30
0.0
 11
244.414888
 21
195.828874
 31
0.0
  0
ARC
  5
264C
100
AcDbEntity
  8
OBJECT
100
AcDbCircle
 10
243.205009
 20
197.297967
 30
0.0
 40
0.25677
100
AcDbArc
 50
0.0
 51
82.780979
  0
LINE
  5
264D
100
AcDbEntity
  8
OBJECT
100
AcDbLine
 10
242.465684
 20
196.499259
 30
0.0
 11
242.465684
 21
196.56787
 31
0.0
  0
LINE
  5
264E
100
AcDbEntity
  8
OBJECT
100
AcDbLine
 10
243.461779
 20
196.920339
 30
0.0
 11
243.461779
 21
197.297967
 31
0.0
  0
ARC
  5
264F
100
AcDbEntity
  8
OBJECT
100
AcDbCircle
 10
243.205009
 20
196.920339
 30
0.0
 40
0.25677
100
AcDbArc
 50
277.219021
 51
0.0
  0
LINE
  5
2650
100
AcDbEntity
  8
OBJECT
100
AcDbLine
 10
243.644335
 20
196.861023
 30
0.0
 11
243.866299
 21
197.166531
 31
0.0
  0
ARC
  5
2651
100
AcDbEntity
  8
OBJECT
100
AcDbCircle
 10
243.852066
 20
196.710098
 30
0.0
 40
0.25677
100
AcDbArc
 50
144.0
 51
226.780979
  0
LINE
  5
2652
100
AcDbEntity
  8
OBJECT
100
AcDbLine
 10
242.465684
 20
197.650437
 30
0.0
 11
242.465684
 21
197.700078
 31
0.0
  0
LINE
  5
2653
100
AcDbEntity
  8
OBJECT
100
AcDbLine
 10
244.197655
 20
197.240655
 30
0.0
 11
245.086045
 21
196.752643
 31
0.0
  0
LWPOLYLINE
  5
2654
100
AcDbEntity
  8
OBJECT
100
AcDbPolyline
 90
        6
 70
     1
 43
0.0
 10
244.74232
 20
195.767702
 10
245.193752
 20
195.968692
 10
245.245405
 20
196.460139
 10
244.845626
 20
196.750596
 10
244.394194
 20
196.549605
 10
244.342541
 20
196.058158
  0
LINE
  5
2655
100
AcDbEntity
  8
OBJECT
100
AcDbLine
 10
244.668285
 20
195.596596
 30
0.0
 11
244.708613
 21
195.652103
 31
0.0
  0
ARC
  5
2656
100
AcDbEntity
  8
OBJECT
100
AcDbCircle
 10
244.707943
 20
196.140739
 30
0.0
 40
0.42795
100
AcDbArc
 50
226.780979
 51
241.219021
  0
LINE
  5
2657
100
AcDbEntity
  8
OBJECT
100
AcDbLine
 10
245.34493
 20
196.527918
 30
0.0
 11
245.374109
 21
196.568079
 31
0.0
  0
ARC
  5
2658
100
AcDbEntity
  8
OBJECT
100
AcDbCircle
 10
244.880003
 20
196.377559
 30
0.0
 40
0.42795
100
AcDbArc
 50
46.780979
 51
61.219021
  0
LEADER
  5
2659
100
AcDbEntity
  8
DIM
100
AcDbLeader
  3
STANDARD
 76
     2
 10
244.68912
 20
206.225345
 30
0.0
 10
242.177929
 20
206.225345
 30
0.0
 77
   256
211
-1.0
221
0.0000000000000001
231
0.0
1001
ACAD
1000
DSTYLE
1002
{
1070
    78
1070
    12
1070
   284
1070
    12
1070
   140
1040
0.5
1070
   340
1005
26
1070
   272
1070
     0
1070
   147
1040
0.375
1070
   287
1070
     5
1070
    41
1040
0.35
1002
}
  0
CIRCLE
  5
265A
100
AcDbEntity
  8
OBJECT
100
AcDbCircle
 10
242.177929
 20
200.158473
 30
0.0
 40
0.375
  0
LINE
  5
265B
100
AcDbEntity
  8
CENTER
100
AcDbLine
 10
242.952383
 20
200.158473
 30
0.0
 11
241.403475
 21
200.158473
 31
0.0
  0
LINE
  5
265C
100
AcDbEntity
  8
DIM
100
AcDbLine
 10
242.177929
 20
203.479188
 30
0.0
 11
242.177929
 21
206.225345
 31
0.0
  0
LINE
  5
265D
100
AcDbEntity
  8
CENTER
100
AcDbLine
 10
249.677929
 20
200.932927
 30
0.0
 11
249.677929
 21
199.384019
 31
0.0
  0
LINE
  5
265E
100
AcDbEntity
  8
CENTER
100
AcDbLine
 10
249.702383
 20
192.658473
 30
0.0
 11
248.153475
 21
192.658473
 31
0.0
  0
LINE
  5
265F
100
AcDbEntity
  8
OBJECT
100
AcDbLine
 10
245.721648
 20
195.351767
 30
0.0
 11
245.943612
 21
195.657275
 31
0.0
  0
LINE
  5
2660
100
AcDbEntity
  8
OBJECT
100
AcDbLine
 10
246.316294
 20
192.889247
 30
0.0
 11
245.884418
 21
193.806239
 31
0.0
  0
LINE
  5
2661
100
AcDbEntity
  8
OBJECT
100
AcDbLine
 10
247.159973
 20
193.163375
 30
0.0
 11
246.970373
 21
194.159088
 31
0.0
  0
ARC
  5
2662
100
AcDbEntity
  8
OBJECT
100
AcDbCircle
 10
246.54859
 20
192.998651
 30
0.0
 40
0.25677
100
AcDbArc
 50
205.219021
 51
288.0
  0
ARC
  5
2663
100
AcDbEntity
  8
OBJECT
100
AcDbCircle
 10
246.54859
 20
192.318295
 30
0.0
 40
0.25677
100
AcDbArc
 50
72.0
 51
154.780979
  0
LINE
  5
2664
100
AcDbEntity
  8
OBJECT
100
AcDbLine
 10
245.741812
 20
191.197934
 30
0.0
 11
245.807065
 21
191.176732
 31
0.0
  0
LINE
  5
2665
100
AcDbEntity
  8
OBJECT
100
AcDbLine
 10
246.316294
 20
192.4277
 30
0.0
 11
245.884418
 21
191.510707
 31
0.0
  0
ARC
  5
2666
100
AcDbEntity
  8
OBJECT
100
AcDbCircle
 10
246.271578
 20
191.328366
 30
0.0
 40
0.42795
100
AcDbArc
 50
154.780979
 51
169.219021
  0
ARC
  5
2667
100
AcDbEntity
  8
OBJECT
100
AcDbCircle
 10
246.907735
 20
193.115344
 30
0.0
 40
0.25677
100
AcDbArc
 50
288.0
 51
10.780979
  0
LINE
  5
2668
100
AcDbEntity
  8
OBJECT
100
AcDbLine
 10
246.627936
 20
192.754448
 30
0.0
 11
246.987082
 21
192.871142
 31
0.0
  0
ARC
  5
2669
100
AcDbEntity
  8
OBJECT
100
AcDbCircle
 10
246.907735
 20
192.201602
 30
0.0
 40
0.25677
100
AcDbArc
 50
349.219021
 51
72.0
  0
LINE
  5
266A
100
AcDbEntity
  8
OBJECT
100
AcDbLine
 10
246.627936
 20
192.562498
 30
0.0
 11
246.987082
 21
192.445805
 31
0.0
  0
LINE
  5
266B
100
AcDbEntity
  8
OBJECT
100
AcDbLine
 10
247.159973
 20
192.153572
 30
0.0
 11
246.970373
 21
191.157858
 31
0.0
  0
ARC
  5
266C
100
AcDbEntity
  8
OBJECT
100
AcDbCircle
 10
246.272965
 20
195.068967
 30
0.0
 40
0.25677
100
AcDbArc
 50
25.219021
 51
108.0
  0
LINE
  5
266D
100
AcDbEntity
  8
OBJECT
100
AcDbLine
 10
246.505261
 20
195.178371
 30
0.0
 11
246.937137
 21
194.261378
 31
0.0
  0
LWPOLYLINE
  5
266E
100
AcDbEntity
  8
OBJECT
100
AcDbPolyline
 90
        6
 70
     1
 43
0.0
 10
246.080124
 20
193.666581
 10
246.563479
 20
193.56384
 10
246.894133
 20
193.931068
 10
246.741431
 20
194.401037
 10
246.258075
 20
194.503777
 10
245.927422
 20
194.136549
  0
LINE
  5
266F
100
AcDbEntity
  8
OBJECT
100
AcDbLine
 10
245.919655
 20
193.57167
 30
0.0
 11
245.984907
 21
193.592872
 31
0.0
  0
LINE
  5
2670
100
AcDbEntity
  8
OBJECT
100
AcDbLine
 10
245.834473
 20
195.196476
 30
0.0
 11
246.193619
 21
195.31317
 31
0.0
  0
ARC
  5
2671
100
AcDbEntity
  8
OBJECT
100
AcDbCircle
 10
246.271578
 20
193.98858
 30
0.0
 40
0.42795
100
AcDbArc
 50
190.780979
 51
205.219021
  0
LINE
  5
2672
100
AcDbEntity
  8
OBJECT
100
AcDbLine
 10
247.01449
 20
193.927403
 30
0.0
 11
247.061701
 21
193.942743
 31
0.0
  0
ARC
  5
2673
100
AcDbEntity
  8
OBJECT
100
AcDbCircle
 10
246.549977
 20
194.079038
 30
0.0
 40
0.42795
100
AcDbArc
 50
10.780979
 51
25.219021
  0
ARC
  5
2674
100
AcDbEntity
  8
OBJECT
100
AcDbCircle
 10
245.735881
 20
195.8082
 30
0.0
 40
0.25677
100
AcDbArc
 50
324.0
 51
46.780979
  0
LINE
  5
2675
100
AcDbEntity
  8
CENTER
100
AcDbLine
 10
249.677929
 20
193.432927
 30
0.0
 11
249.677929
 21
191.884019
 31
0.0
  0
CIRCLE
  5
2676
100
AcDbEntity
  8
OBJECT
100
AcDbCircle
 10
249.677929
 20
192.658473
 30
0.0
 40
0.375
  0
LINE
  5
2677
100
AcDbEntity
  8
CENTER
100
AcDbLine
 10
250.452383
 20
200.158473
 30
0.0
 11
248.903475
 21
200.158473
 31
0.0
  0
CIRCLE
  5
2678
100
AcDbEntity
  8
OBJECT
100
AcDbCircle
 10
249.677929
 20
200.158473
 30
0.0
 40
0.375
  0
LWPOLYLINE
  5
2679
100
AcDbEntity
  8
BORDER
 62
     8
100
AcDbPolyline
 90
        2
 70
     0
 43
0.226295
 10
266.273188
 20
238.842685
 42
0.414214
 10
265.368007
 20
239.747866
 42
0.76155
  0
ARC
  5
267A
100
AcDbEntity
  8
BORDER
 62
     8
100
AcDbCircle
 10
265.368007
 20
238.842685
 30
0.0
 40
0.905181
100
AcDbArc
 50
0.0
 51
90.0
  0
TEXT
  5
2686
100
AcDbEntity
  8
DIM
100
AcDbText
 10
196.790311
 20
167.064577
 30
0.0
 40
0.547852
  1
4
  7
ROMANS
100
AcDbText
  0
LWPOLYLINE
  5
2687
100
AcDbEntity
  8
DIM
 62
     6
100
AcDbPolyline
 90
        2
 70
     0
 43
0.105322
 39
8.425725
 10
218.499038
 20
236.238714
 10
227.243179
 20
236.238714
  0
TEXT
  5
2688
100
AcDbEntity
  8
DIM
100
AcDbText
 10
202.247039
 20
231.992735
 30
0.0
 40
0.976563
  1
PERFORMANCE REQUIREMENTS OF MOST APPLICATIONS.
  7
ROMANS
 72
     1
 11
222.871109
 21
231.992735
 31
0.0
100
AcDbText
  0
TEXT
  5
2689
100
AcDbEntity
  8
DIM
100
AcDbText
 10
194.364784
 20
233.582974
 30
0.0
 40
0.976563
  1
LINKSEAL IS RATED AT 20 PSIG (40 FEET OF HEAD), WHICH EXCEDES THE
  7
ROMANS
 72
     1
 11
222.871109
 21
233.582974
 31
0.0
100
AcDbText
  0
TEXT
  5
268A
100
AcDbEntity
  8
DIM
 62
     6
100
AcDbText
 10
218.44204
 20
236.712168
 30
0.0
 40
1.263859
  1
LINKSEAL
  7
ROMAND
 72
     1
 11
222.895637
 21
236.712168
 31
0.0
100
AcDbText
  0
HATCH
  5
26AB
100
AcDbEntity
  8
HATCH
100
AcDbHatch
 10
0.0
 20
0.0
 30
0.0
210
0.0
220
0.0
230
1.0
  2
ANSI32
 70
     0
 71
     1
 91
        2
 92
        7
 72
     0
 73
     1
 93
        4
 10
198.9170785328811
 20
200.4397231226924
 10
199.2920785328811
 20
200.4397231226924
 10
199.2920785328811
 20
201.6584731226924
 10
198.9170785328811
 20
201.6584731226924
 97
        4
330
24F9
330
2508
330
24F7
330
256E
 92
        7
 72
     0
 73
     1
 93
        4
 10
198.9170785328811
 20
198.3068498937344
 10
199.2920785328811
 20
198.3068498937343
 10
199.2920785328811
 20
199.8772231226923
 10
198.9170785328811
 20
199.8772231226923
 97
        4
330
24F6
330
2508
330
2502
330
253C
 75
     0
 76
     1
 52
270.0
 41
1.5
 77
     0
 78
     2
 53
315.0
 43
0.0
 44
2.201346
 45
0.3977475644174331
 46
0.3977475644174329
 79
     0
 53
315.0
 43
0.0
 44
1.936181
 45
0.3977475644174331
 46
0.3977475644174329
 79
     0
 47
0.010331
 98
        2
 10
199.08763
 20
201.122266
 10
198.994582
 20
199.200776
  0
HATCH
  5
26B4
100
AcDbEntity
  8
HATCH
100
AcDbHatch
 10
0.0
 20
0.0
 30
0.0
210
0.0
220
0.0
230
1.0
  2
ANSI32
 70
     0
 71
     1
 91
        2
 92
        7
 72
     0
 73
     1
 93
        4
 10
198.9170785328811
 20
185.4397231226925
 10
199.2920785328811
 20
185.4397231226925
 10
199.2920785328811
 20
186.9516477718344
 10
198.9170785328811
 20
186.9516477718344
 97
        4
330
2351
330
23A7
330
2348
330
23FF
 92
        7
 72
     0
 73
     1
 93
        4
 10
198.9170785328812
 20
183.6584731226924
 10
199.2920785328811
 20
183.6584731226924
 10
199.2920785328811
 20
184.8772231226924
 10
198.9170785328811
 20
184.8772231226924
 97
        4
330
2347
330
23A7
330
2349
330
23FF
 75
     0
 76
     1
 52
270.0
 41
1.5
 77
     0
 78
     2
 53
315.0
 43
0.0
 44
2.201346
 45
0.3977475644174331
 46
0.3977475644174329
 79
     0
 53
315.0
 43
0.0
 44
1.936181
 45
0.3977475644174331
 46
0.3977475644174329
 79
     0
 47
0.008748
 98
        2
 10
199.004017
 20
186.417411
 10
199.082814
 20
184.2478
  0
HATCH
  5
26C1
100
AcDbEntity
  8
HATCH
100
AcDbHatch
 10
0.0
 20
0.0
 30
0.0
210
0.0
220
0.0
230
1.0
  2
ANSI38
 70
     0
 71
     1
 91
        2
 92
        7
 72
     0
 73
     1
 93
        7
 10
199.2920785328811
 20
201.6584731226924
 10
199.2920785328811
 20
200.4397231226924
 10
200.0420785328812
 20
200.4397231226925
 10
200.0420785328811
 20
200.5803481226924
 10
200.0420785328811
 20
205.3713421359624
 10
199.6407662110236
 20
205.4799045154531
 10
199.2920785328812
 20
205.3713421359623
 97
        7
330
2576
330
2577
330
256D
330
256E
330
24F7
330
2572
330
256C
 92
        7
 72
     0
 73
     1
 93
        4
 10
200.0420785328811
 20
199.8772231226924
 10
199.2920785328812
 20
199.8772231226923
 10
199.2920785328812
 20
198.3068498937344
 10
200.0420785328812
 20
198.3068498937344
 97
        4
330
24F6
330
253C
330
2502
330
2540
 75
     0
 76
     1
 52
0.0
 41
1.5
 77
     0
 78
     2
 53
45.0
 43
0.0
 44
2.201346
 45
-0.1325825214724776
 46
0.1325825214724777
 79
     0
 53
135.0
 43
0.0
 44
2.201346
 45
-0.397747564417433
 46
0.1325825214724777
 79
     2
 49
0.46875
 49
-0.28125
 47
0.016036
 98
        2
 10
199.604507
 20
202.729088
 10
199.829191
 20
199.329381
  0
HATCH
  5
26CD
100
AcDbEntity
  8
HATCH
100
AcDbHatch
 10
0.0
 20
0.0
 30
0.0
210
0.0
220
0.0
230
1.0
  2
ANSI38
 70
     0
 71
     1
 91
        2
 92
        7
 72
     0
 73
     1
 93
        5
 10
200.042078532881
 20
186.9516477718344
 10
199.2920785328811
 20
186.9516477718344
 10
199.2920785328811
 20
185.4397231226924
 10
200.042078532881
 20
185.4397231226924
 10
200.042078532881
 20
185.5803481226923
 97
        5
330
2351
330
23FF
330
2348
330
2406
330
23FE
 92
        7
 72
     0
 73
     1
 93
        6
 10
199.2920785328809
 20
179.9456041094224
 10
199.6407662110234
 20
179.8370417299316
 10
200.042078532881
 20
179.9456041094224
 10
200.042078532881
 20
184.8772231226924
 10
199.2920785328812
 20
184.8772231226924
 10
199.2920785328811
 20
183.6584731226924
 97
        6
330
2347
330
23FF
330
23FB
330
23FD
330
23FC
330
23FA
 75
     0
 76
     1
 52
0.0
 41
1.5
 77
     0
 78
     2
 53
45.0
 43
0.0
 44
2.201346
 45
-0.1325825214724776
 46
0.1325825214724777
 79
     0
 53
135.0
 43
0.0
 44
2.201346
 45
-0.397747564417433
 46
0.1325825214724777
 79
     2
 49
0.46875
 49
-0.28125
 47
0.021021
 98
        2
 10
199.854027
 20
186.156236
 10
199.643648
 20
182.813819
  0
LINE
  5
26CE
100
AcDbEntity
  8
OBJECT
100
AcDbLine
 10
198.917079
 20
186.576648
 30
0.0
 11
198.542079
 21
186.951648
 31
0.0
  0
LINE
  5
26CF
100
AcDbEntity
  8
OBJECT
100
AcDbLine
 10
198.917079
 20
198.68185
 30
0.0
 11
198.542079
 21
198.30685
 31
0.0
  0
INSERT
  5
27AD
100
AcDbEntity
  8
HATCH
100
AcDbBlockReference
  2
A$C2A927E97
 10
228.409474
 20
148.505685
 30
0.0
  0
ENDSEC
  0
SECTION
  2
OBJECTS
  0
DICTIONARY
  5
C
100
AcDbDictionary
  3
ACAD_GROUP
350
D
  3
ACAD_MLINESTYLE
350
1A
  3
ACDBVARIABLEDICTIONARY
350
38
  0
DICTIONARY
  5
D
102
{ACAD_REACTORS
330
C
102
}
100
AcDbDictionary
  0
DICTIONARY
  5
1A
102
{ACAD_REACTORS
330
C
102
}
100
AcDbDictionary
  3
STANDARD
350
1B
  0
DICTIONARY
  5
38
102
{ACAD_REACTORS
330
C
102
}
100
AcDbDictionary
  3
DIMADEC
350
39
  3
SORTENTS
350
2690
  0
MLINESTYLE
  5
1B
102
{ACAD_REACTORS
330
1A
102
}
100
AcDbMlineStyle
  2
STANDARD
 70
     0
  3

 62
   256
 51
90.0
 52
90.0
 71
     2
 49
0.5
 62
   256
  6
BYLAYER
 49
-0.5
 62
   256
  6
BYLAYER
  0
DICTIONARYVAR
  5
39
102
{ACAD_REACTORS
330
38
102
}
100
DictionaryVariables
280
     0
  1
0
  0
DICTIONARYVAR
  5
2690
102
{ACAD_REACTORS
330
38
102
}
100
DictionaryVariables
280
     0
  1
96
  0
ENDSEC
  0
EOF
