  0
SECTION
  2
HEADER
  9
$ACADVER
  1
AC1014
  9
$ACADMAINTVER
 70
     0
  9
$DWGCODEPAGE
  3
ANSI_1252
  9
$INSBASE
 10
0.0
 20
0.0
 30
0.0
  9
$EXTMIN
 10
67.626346
 20
49.604623
 30
-0.00297
  9
$EXTMAX
 10
93.619456
 20
83.235746
 30
50.003136
  9
$LIMMIN
 10
36.957675
 20
49.337321
  9
$LIMMAX
 10
63.371644
 20
83.82139
  9
$ORTHOMODE
 70
     0
  9
$REGENMODE
 70
     1
  9
$FILLMODE
 70
     1
  9
$QTEXTMODE
 70
     0
  9
$MIRRTEXT
 70
     1
  9
$DRAGMODE
 70
     2
  9
$LTSCALE
 40
0.5
  9
$OSMODE
 70
   675
  9
$ATTMODE
 70
     1
  9
$TEXTSIZE
 40
0.3
  9
$TRACEWID
 40
0.05
  9
$TEXTSTYLE
  7
ROMANS
  9
$CLAYER
  8
DIM
  9
$CELTYPE
  6
BYLAYER
  9
$CECOLOR
 62
   256
  9
$CELTSCALE
 40
1.0
  9
$DELOBJ
 70
     1
  9
$DISPSILH
 70
     0
  9
$DIMSCALE
 40
1.0
  9
$DIMASZ
 40
0.25
  9
$DIMEXO
 40
0.0625
  9
$DIMDLI
 40
0.38
  9
$DIMRND
 40
0.0
  9
$DIMDLE
 40
0.0
  9
$DIMEXE
 40
0.18
  9
$DIMTP
 40
0.0
  9
$DIMTM
 40
0.0
  9
$DIMTXT
 40
0.18
  9
$DIMCEN
 40
0.09
  9
$DIMTSZ
 40
0.0
  9
$DIMTOL
 70
     0
  9
$DIMLIM
 70
     0
  9
$DIMTIH
 70
     1
  9
$DIMTOH
 70
     1
  9
$DIMSE1
 70
     0
  9
$DIMSE2
 70
     0
  9
$DIMTAD
 70
     0
  9
$DIMZIN
 70
     0
  9
$DIMBLK
  1

  9
$DIMASO
 70
     1
  9
$DIMSHO
 70
     1
  9
$DIMPOST
  1

  9
$DIMAPOST
  1

  9
$DIMALT
 70
     0
  9
$DIMALTD
 70
     2
  9
$DIMALTF
 40
25.4
  9
$DIMLFAC
 40
1.0
  9
$DIMTOFL
 70
     0
  9
$DIMTVP
 40
0.0
  9
$DIMTIX
 70
     0
  9
$DIMSOXD
 70
     0
  9
$DIMSAH
 70
     0
  9
$DIMBLK1
  1

  9
$DIMBLK2
  1

  9
$DIMSTYLE
  2
STANDARD
  9
$DIMCLRD
 70
     0
  9
$DIMCLRE
 70
     0
  9
$DIMCLRT
 70
     0
  9
$DIMTFAC
 40
1.0
  9
$DIMGAP
 40
0.09
  9
$DIMJUST
 70
     0
  9
$DIMSD1
 70
     0
  9
$DIMSD2
 70
     0
  9
$DIMTOLJ
 70
     1
  9
$DIMTZIN
 70
     0
  9
$DIMALTZ
 70
     0
  9
$DIMALTTZ
 70
     0
  9
$DIMFIT
 70
     5
  9
$DIMUPT
 70
     0
  9
$DIMUNIT
 70
     2
  9
$DIMDEC
 70
     4
  9
$DIMTDEC
 70
     4
  9
$DIMALTU
 70
     2
  9
$DIMALTTD
 70
     2
  9
$DIMTXSTY
  7
ROMANS
  9
$DIMAUNIT
 70
     0
  9
$LUNITS
 70
     2
  9
$LUPREC
 70
     4
  9
$SKETCHINC
 40
0.1
  9
$FILLETRAD
 40
0.0
  9
$AUNITS
 70
     0
  9
$AUPREC
 70
     0
  9
$MENU
  1
acad
  9
$ELEVATION
 40
0.0
  9
$PELEVATION
 40
0.0
  9
$THICKNESS
 40
0.0
  9
$LIMCHECK
 70
     0
  9
$BLIPMODE
 70
     0
  9
$CHAMFERA
 40
0.0
  9
$CHAMFERB
 40
0.0
  9
$CHAMFERC
 40
0.0
  9
$CHAMFERD
 40
0.0
  9
$SKPOLY
 70
     0
  9
$TDCREATE
 40
2449612.479072917
  9
$TDUPDATE
 40
2453080.565234953
  9
$TDINDWG
 40
0.1683118981
  9
$TDUSRTIMER
 40
0.1683118981
  9
$USRTIMER
 70
     1
  9
$ANGBASE
 50
0.0
  9
$ANGDIR
 70
     0
  9
$PDMODE
 70
     0
  9
$PDSIZE
 40
0.0
  9
$PLINEWID
 40
0.03
  9
$COORDS
 70
     1
  9
$SPLFRAME
 70
     0
  9
$SPLINETYPE
 70
     6
  9
$SPLINESEGS
 70
     8
  9
$ATTDIA
 70
     0
  9
$ATTREQ
 70
     1
  9
$HANDLING
 70
     1
  9
$HANDSEED
  5
3163
  9
$SURFTAB1
 70
     6
  9
$SURFTAB2
 70
     6
  9
$SURFTYPE
 70
     6
  9
$SURFU
 70
     6
  9
$SURFV
 70
     6
  9
$UCSNAME
  2

  9
$UCSORG
 10
0.0
 20
0.0
 30
0.0
  9
$UCSXDIR
 10
1.0
 20
0.0
 30
0.0
  9
$UCSYDIR
 10
0.0
 20
1.0
 30
0.0
  9
$PUCSNAME
  2

  9
$PUCSORG
 10
0.0
 20
0.0
 30
0.0
  9
$PUCSXDIR
 10
1.0
 20
0.0
 30
0.0
  9
$PUCSYDIR
 10
0.0
 20
1.0
 30
0.0
  9
$USERI1
 70
     0
  9
$USERI2
 70
     0
  9
$USERI3
 70
     0
  9
$USERI4
 70
     0
  9
$USERI5
 70
     0
  9
$USERR1
 40
0.0
  9
$USERR2
 40
0.0
  9
$USERR3
 40
0.0
  9
$USERR4
 40
0.0
  9
$USERR5
 40
0.0
  9
$WORLDVIEW
 70
     1
  9
$SHADEDGE
 70
     3
  9
$SHADEDIF
 70
    70
  9
$TILEMODE
 70
     1
  9
$MAXACTVP
 70
    16
  9
$PINSBASE
 10
0.0
 20
0.0
 30
0.0
  9
$PLIMCHECK
 70
     0
  9
$PEXTMIN
 10
1.000000E+20
 20
1.000000E+20
 30
1.000000E+20
  9
$PEXTMAX
 10
-1.000000E+20
 20
-1.000000E+20
 30
-1.000000E+20
  9
$PLIMMIN
 10
0.0
 20
0.0
  9
$PLIMMAX
 10
12.0
 20
9.0
  9
$UNITMODE
 70
     0
  9
$VISRETAIN
 70
     0
  9
$PLINEGEN
 70
     0
  9
$PSLTSCALE
 70
     1
  9
$TREEDEPTH
 70
  3020
  9
$PICKSTYLE
 70
     1
  9
$CMLSTYLE
  2
STANDARD
  9
$CMLJUST
 70
     0
  9
$CMLSCALE
 40
1.0
  9
$PROXYGRAPHICS
 70
     1
  9
$MEASUREMENT
 70
     0
  0
ENDSEC
  0
SECTION
  2
CLASSES
  0
CLASS
  1
DICTIONARYVAR
  2
AcDbDictionaryVar
  3
"AutoCAD"
 90
        0
280
     0
281
     0
  0
CLASS
  1
LWPOLYLINE
  2
AcDbPolyline
  3
"AutoCAD"
 90
        0
280
     0
281
     1
  0
CLASS
  1
HATCH
  2
AcDbHatch
  3
"ACAD_SEDONA"
 90
        0
280
     0
281
     1
  0
ENDSEC
  0
SECTION
  2
TABLES
  0
TABLE
  2
VPORT
  5
8
100
AcDbSymbolTable
 70
     5
  0
VPORT
  5
3162
100
AcDbSymbolTableRecord
100
AcDbViewportTableRecord
  2
*ACTIVE
 70
     0
 10
0.0
 20
0.0
 11
1.0
 21
1.0
 12
80.622901
 22
66.420184
 13
0.0
 23
0.0
 14
0.5
 24
0.5
 15
0.0
 25
0.0
 16
0.0
 26
0.0
 36
1.0
 17
0.0
 27
0.0
 37
0.0
 40
33.997341
 41
1.750909
 42
50.0
 43
0.0
 44
0.0
 50
0.0
 51
0.0
 71
     0
 72
   100
 73
     1
 74
     0
 75
     0
 76
     0
 77
     0
 78
     0
  0
ENDTAB
  0
TABLE
  2
LTYPE
  5
5
100
AcDbSymbolTable
 70
     3
  0
LTYPE
  5
11
100
AcDbSymbolTableRecord
100
AcDbLinetypeTableRecord
  2
BYBLOCK
 70
     0
  3

 72
    65
 73
     0
 40
0.0
  0
LTYPE
  5
12
100
AcDbSymbolTableRecord
100
AcDbLinetypeTableRecord
  2
BYLAYER
 70
     0
  3

 72
    65
 73
     0
 40
0.0
  0
LTYPE
  5
13
100
AcDbSymbolTableRecord
100
AcDbLinetypeTableRecord
  2
CONTINUOUS
 70
     0
  3
Solid line
 72
    65
 73
     0
 40
0.0
  0
LTYPE
  5
36
100
AcDbSymbolTableRecord
100
AcDbLinetypeTableRecord
  2
CENTER
 70
     0
  3
____ _ ____ _ ____ _ ____ _ ____ _ ____ _ ____ 
 72
    65
 73
     4
 40
2.0
 49
1.25
 74
     0
 49
-0.25
 74
     0
 49
0.25
 74
     0
 49
-0.25
 74
     0
  0
LTYPE
  5
38
100
AcDbSymbolTableRecord
100
AcDbLinetypeTableRecord
  2
HIDDEN
 70
     0
  3
__ __ __ __ __ __ __ __ __ __ __ __ __ __ __ __
 72
    65
 73
     2
 40
0.375
 49
0.25
 74
     0
 49
-0.125
 74
     0
  0
ENDTAB
  0
TABLE
  2
LAYER
  5
2
100
AcDbSymbolTable
 70
     7
  0
LAYER
  5
E
100
AcDbSymbolTableRecord
100
AcDbLayerTableRecord
  2
0
 70
     0
 62
     7
  6
CONTINUOUS
  0
LAYER
  5
3B
100
AcDbSymbolTableRecord
100
AcDbLayerTableRecord
  2
OBJECT
 70
     0
 62
     2
  6
CONTINUOUS
  0
LAYER
  5
3D
100
AcDbSymbolTableRecord
100
AcDbLayerTableRecord
  2
DIM
 70
     0
 62
     6
  6
CONTINUOUS
  0
LAYER
  5
3E
100
AcDbSymbolTableRecord
100
AcDbLayerTableRecord
  2
HIDDEN
 70
     0
 62
     1
  6
HIDDEN
  0
LAYER
  5
3F
100
AcDbSymbolTableRecord
100
AcDbLayerTableRecord
  2
CENTER
 70
     0
 62
     3
  6
CENTER
  0
LAYER
  5
42
100
AcDbSymbolTableRecord
100
AcDbLayerTableRecord
  2
BORDER
 70
     0
 62
     5
  6
CONTINUOUS
  0
LAYER
  5
2DC9
100
AcDbSymbolTableRecord
100
AcDbLayerTableRecord
  2
LIMITS
 70
     0
 62
     7
  6
CONTINUOUS
  0
ENDTAB
  0
TABLE
  2
STYLE
  5
3
100
AcDbSymbolTable
 70
     5
  0
STYLE
  5
F
100
AcDbSymbolTableRecord
100
AcDbTextStyleTableRecord
  2
STANDARD
 70
     0
 40
0.0
 41
1.0
 50
0.0
 71
     0
 42
0.2
  3
txt
  4

  0
STYLE
  5
31
100
AcDbSymbolTableRecord
100
AcDbTextStyleTableRecord
  2
ROMANS
 70
     0
 40
0.3
 41
1.0
 50
0.0
 71
     0
 42
0.3
  3
romans
  4

  0
STYLE
  5
33
100
AcDbSymbolTableRecord
100
AcDbTextStyleTableRecord
  2
ROMAND
 70
     0
 40
0.1
 41
1.0
 50
0.0
 71
     0
 42
0.1
  3
romand
  4

  0
STYLE
  5
34
100
AcDbSymbolTableRecord
100
AcDbTextStyleTableRecord
  2
ROMANC
 70
     0
 40
0.0531
 41
1.0
 50
0.0
 71
     0
 42
0.0531
  3
romanc
  4

  0
STYLE
  5
2DCA
100
AcDbSymbolTableRecord
100
AcDbTextStyleTableRecord
  2
COUNTRYBLUEPRINT
 70
     0
 40
0.061059
 41
1.0
 50
0.0
 71
     0
 42
0.061059
  3
cobt____.pfb
  4

  0
ENDTAB
  0
TABLE
  2
VIEW
  5
6
100
AcDbSymbolTable
 70
     0
  0
ENDTAB
  0
TABLE
  2
UCS
  5
7
100
AcDbSymbolTable
 70
     0
  0
ENDTAB
  0
TABLE
  2
APPID
  5
9
100
AcDbSymbolTable
 70
     1
  0
APPID
  5
10
100
AcDbSymbolTableRecord
100
AcDbRegAppTableRecord
  2
ACAD
 70
     0
  0
ENDTAB
  0
TABLE
  2
DIMSTYLE
  5
A
100
AcDbSymbolTable
 70
     1
  0
DIMSTYLE
105
2432
100
AcDbSymbolTableRecord
100
AcDbDimStyleTableRecord
  2
STANDARD
 70
     0
  3

  4

  5

  6

  7

 40
1.0
 41
0.18
 42
0.0625
 43
0.38
 44
0.18
 45
0.0
 46
0.0
 47
0.0
 48
0.0
140
0.18
141
0.09
142
0.0
143
25.4
144
1.0
145
0.0
146
1.0
147
0.09
 71
     0
 72
     0
 73
     1
 74
     1
 75
     0
 76
     0
 77
     0
 78
     0
170
     0
171
     2
172
     0
173
     0
174
     0
175
     0
176
     0
177
     0
178
     0
270
     2
271
     4
272
     4
273
     2
274
     2
340
F
275
     0
280
     0
281
     0
282
     0
283
     1
284
     0
285
     0
286
     0
287
     3
288
     0
  0
ENDTAB
  0
TABLE
  2
BLOCK_RECORD
  5
1
100
AcDbSymbolTable
 70
     0
  0
BLOCK_RECORD
  5
17
100
AcDbSymbolTableRecord
100
AcDbBlockTableRecord
  2
*MODEL_SPACE
  0
BLOCK_RECORD
  5
14
100
AcDbSymbolTableRecord
100
AcDbBlockTableRecord
  2
*PAPER_SPACE
  0
ENDTAB
  0
ENDSEC
  0
SECTION
  2
BLOCKS
  0
BLOCK
  5
46
100
AcDbEntity
  8
0
100
AcDbBlockBegin
  2
*MODEL_SPACE
 70
     0
 10
0.0
 20
0.0
 30
0.0
  3
*MODEL_SPACE
  1

  0
ENDBLK
  5
47
100
AcDbEntity
  8
0
100
AcDbBlockEnd
  0
BLOCK
  5
44
100
AcDbEntity
 67
     1
  8
0
100
AcDbBlockBegin
  2
*PAPER_SPACE
 70
     0
 10
0.0
 20
0.0
 30
0.0
  3
*PAPER_SPACE
  1

  0
ENDBLK
  5
45
100
AcDbEntity
 67
     1
  8
0
100
AcDbBlockEnd
  0
ENDSEC
  0
SECTION
  2
ENTITIES
  0
LINE
  5
1E53
100
AcDbEntity
  8
OBJECT
  6
CONTINUOUS
 62
     2
100
AcDbLine
 39
50.0
 10
73.025888
 20
72.650057
 30
0.0
 11
69.555341
 21
72.650057
 31
0.0
  0
LINE
  5
1E54
100
AcDbEntity
  8
OBJECT
  6
CONTINUOUS
 62
     2
100
AcDbLine
 39
50.0
 10
73.088916
 20
72.462557
 30
0.0
 11
69.618369
 21
72.462557
 31
0.0
  0
LINE
  5
1E55
100
AcDbEntity
  8
OBJECT
 62
     2
100
AcDbLine
 39
50.0
 10
71.663554
 20
72.875057
 30
0.0
 11
71.638554
 21
72.900057
 31
0.0
  0
LINE
  5
1E56
100
AcDbEntity
  8
OBJECT
  6
CONTINUOUS
 62
     2
100
AcDbLine
 39
50.0
 10
71.638554
 20
72.900057
 30
0.0
 11
70.388554
 21
72.900057
 31
0.0
  0
LINE
  5
1E57
100
AcDbEntity
  8
OBJECT
 62
     2
100
AcDbLine
 39
50.0
 10
70.363554
 20
72.875057
 30
0.0
 11
70.388554
 21
72.900057
 31
0.0
  0
LINE
  5
1E58
100
AcDbEntity
  8
OBJECT
 62
     2
100
AcDbLine
 39
50.0
 10
71.688554
 20
73.485057
 30
0.0
 11
71.638554
 21
73.535057
 31
0.0
  0
LINE
  5
1E59
100
AcDbEntity
  8
OBJECT
  6
CONTINUOUS
 62
     2
100
AcDbLine
 39
50.0
 10
71.638554
 20
73.535057
 30
0.0
 11
70.388554
 21
73.535057
 31
0.0
  0
LINE
  5
1E5A
100
AcDbEntity
  8
OBJECT
 62
     2
100
AcDbLine
 39
50.0
 10
70.338554
 20
73.485057
 30
0.0
 11
70.388554
 21
73.535057
 31
0.0
  0
LINE
  5
1E5B
100
AcDbEntity
  8
OBJECT
  6
CONTINUOUS
 62
     2
100
AcDbLine
 39
50.0
 10
71.523554
 20
72.192557
 30
0.0
 11
70.503554
 21
72.192557
 31
0.0
  0
LINE
  5
1E5C
100
AcDbEntity
  8
OBJECT
 62
     2
100
AcDbLine
 39
50.0
 10
70.453554
 20
72.242557
 30
0.0
 11
70.503554
 21
72.192557
 31
0.0
  0
LINE
  5
1E5D
100
AcDbEntity
  8
OBJECT
  6
CONTINUOUS
 62
     2
100
AcDbLine
 39
50.0
 10
71.573554
 20
72.412557
 30
0.0
 11
71.428554
 21
72.412557
 31
0.0
  0
LINE
  5
1E5E
100
AcDbEntity
  8
OBJECT
  6
CONTINUOUS
 62
     2
100
AcDbLine
 39
50.0
 10
70.598554
 20
72.412557
 30
0.0
 11
70.453554
 21
72.412557
 31
0.0
  0
LINE
  5
1E5F
100
AcDbEntity
  8
OBJECT
  6
CONTINUOUS
 62
     2
100
AcDbLine
 39
50.0
 10
71.438554
 20
72.172434
 30
0.0
 11
70.588554
 21
72.172434
 31
0.0
  0
LINE
  5
1E60
100
AcDbEntity
  8
OBJECT
  6
CONTINUOUS
 62
     2
100
AcDbLine
 39
50.0
 10
70.833554
 20
72.242557
 30
0.0
 11
70.598554
 21
72.242557
 31
0.0
  0
LINE
  5
1E61
100
AcDbEntity
  8
OBJECT
  6
CONTINUOUS
 62
     2
100
AcDbLine
 39
50.0
 10
71.428554
 20
72.242557
 30
0.0
 11
71.193554
 21
72.242557
 31
0.0
  0
LINE
  5
1E62
100
AcDbEntity
  8
OBJECT
  6
CONTINUOUS
 62
     2
100
AcDbLine
 39
50.0
 10
71.193554
 20
72.412557
 30
0.0
 11
70.833554
 21
72.412557
 31
0.0
  0
LINE
  5
1E63
100
AcDbEntity
  8
OBJECT
  6
CONTINUOUS
 62
     2
100
AcDbLine
 39
50.0
 10
71.438554
 20
72.150057
 30
0.0
 11
70.588554
 21
72.150057
 31
0.0
  0
LINE
  5
1E64
100
AcDbEntity
  8
OBJECT
  6
CONTINUOUS
 62
     2
100
AcDbLine
 39
50.0
 10
71.663554
 20
72.650057
 30
0.0
 11
70.363554
 21
72.650057
 31
0.0
  0
LINE
  5
1E65
100
AcDbEntity
  8
OBJECT
  6
CONTINUOUS
 62
     2
100
AcDbLine
 39
50.0
 10
71.688554
 20
73.100057
 30
0.0
 11
70.338554
 21
73.100057
 31
0.0
  0
ARC
  5
1E66
100
AcDbEntity
  8
OBJECT
 62
     2
100
AcDbCircle
 39
50.0
 10
70.701054
 20
73.552057
 30
0.0
 40
0.15
100
AcDbArc
 50
90.0
 51
180.0
  0
LINE
  5
1E67
100
AcDbEntity
  8
OBJECT
  6
CONTINUOUS
 62
     2
100
AcDbLine
 39
50.0
 10
71.326054
 20
73.702057
 30
0.0
 11
70.701054
 21
73.702057
 31
0.0
  0
ARC
  5
1E68
100
AcDbEntity
  8
OBJECT
 62
     2
100
AcDbCircle
 39
50.0
 10
71.326054
 20
73.552057
 30
0.0
 40
0.15
100
AcDbArc
 50
0.0
 51
90.0
  0
LINE
  5
1E69
100
AcDbEntity
  8
OBJECT
  6
CONTINUOUS
 62
     2
100
AcDbLine
 39
50.0
 10
71.338554
 20
73.485057
 30
0.0
 11
71.238554
 21
73.485057
 31
0.0
  0
LINE
  5
1E6A
100
AcDbEntity
  8
OBJECT
  6
CONTINUOUS
 62
     2
100
AcDbLine
 39
50.0
 10
70.788554
 20
73.485057
 30
0.0
 11
70.688554
 21
73.485057
 31
0.0
  0
LINE
  5
1E6B
100
AcDbEntity
  8
OBJECT
  6
CONTINUOUS
 62
     2
100
AcDbLine
 39
50.0
 10
71.438554
 20
73.044873
 30
0.0
 11
70.588554
 21
73.044873
 31
0.0
  0
LINE
  5
1E6C
100
AcDbEntity
  8
OBJECT
  6
CONTINUOUS
 62
     2
100
AcDbLine
 39
50.0
 10
71.438554
 20
72.962095
 30
0.0
 11
70.588554
 21
72.962095
 31
0.0
  0
LINE
  5
1E6D
100
AcDbEntity
  8
OBJECT
 62
     2
100
AcDbLine
 39
20.0
 10
71.663554
 20
72.650057
 30
0.0
 11
71.663554
 21
72.875057
 31
0.0
  0
LINE
  5
1E6E
100
AcDbEntity
  8
OBJECT
 62
     2
100
AcDbLine
 39
20.0
 10
70.363554
 20
72.650057
 30
0.0
 11
70.363554
 21
72.875057
 31
0.0
  0
ARC
  5
1E6F
100
AcDbEntity
  8
OBJECT
 62
     2
100
AcDbCircle
 39
20.0
 10
70.463554
 20
72.828314
 30
0.0
 40
0.694216
100
AcDbArc
 50
71.088553
 51
97.774298
  0
ARC
  5
1E70
100
AcDbEntity
  8
OBJECT
 62
     2
100
AcDbCircle
 39
20.0
 10
71.563554
 20
72.828314
 30
0.0
 40
0.694216
100
AcDbArc
 50
82.225702
 51
108.911447
  0
LINE
  5
1E71
100
AcDbEntity
  8
OBJECT
 62
     2
100
AcDbLine
 39
20.0
 10
71.688554
 20
73.100057
 30
0.0
 11
71.688554
 21
73.485057
 31
0.0
  0
LINE
  5
1E72
100
AcDbEntity
  8
OBJECT
 62
     2
100
AcDbLine
 39
20.0
 10
70.338554
 20
73.100057
 30
0.0
 11
70.338554
 21
73.485057
 31
0.0
  0
ARC
  5
1E73
100
AcDbEntity
  8
OBJECT
 62
     2
100
AcDbCircle
 39
20.0
 10
70.418554
 20
72.585691
 30
0.0
 40
0.38748
100
AcDbArc
 50
280.784369
 51
297.680448
  0
ARC
  5
1E74
100
AcDbEntity
  8
OBJECT
 62
     2
100
AcDbCircle
 39
20.0
 10
71.608554
 20
72.585691
 30
0.0
 40
0.38748
100
AcDbArc
 50
242.319552
 51
259.215631
  0
LINE
  5
1E75
100
AcDbEntity
  8
OBJECT
 62
     2
100
AcDbLine
 39
20.0
 10
71.523554
 20
72.192557
 30
0.0
 11
71.573554
 21
72.242557
 31
0.0
  0
LINE
  5
1E76
100
AcDbEntity
  8
OBJECT
 62
     2
100
AcDbLine
 39
20.0
 10
71.573554
 20
72.242557
 30
0.0
 11
71.573554
 21
72.462557
 31
0.0
  0
LINE
  5
1E77
100
AcDbEntity
  8
OBJECT
 62
     2
100
AcDbLine
 39
20.0
 10
70.453554
 20
72.242557
 30
0.0
 11
70.453554
 21
72.462557
 31
0.0
  0
LINE
  5
1E78
100
AcDbEntity
  8
OBJECT
 62
     2
100
AcDbLine
 39
20.0
 10
71.428554
 20
72.242557
 30
0.0
 11
71.428554
 21
72.412557
 31
0.0
  0
LINE
  5
1E79
100
AcDbEntity
  8
OBJECT
 62
     2
100
AcDbLine
 39
20.0
 10
71.193554
 20
72.242557
 30
0.0
 11
71.193554
 21
72.412557
 31
0.0
  0
LINE
  5
1E7A
100
AcDbEntity
  8
OBJECT
 62
     2
100
AcDbLine
 39
20.0
 10
70.598554
 20
72.242557
 30
0.0
 11
70.598554
 21
72.412557
 31
0.0
  0
LINE
  5
1E7B
100
AcDbEntity
  8
OBJECT
 62
     2
100
AcDbLine
 39
20.0
 10
70.833554
 20
72.242557
 30
0.0
 11
70.833554
 21
72.412557
 31
0.0
  0
ARC
  5
1E7C
100
AcDbEntity
  8
OBJECT
 62
     2
100
AcDbCircle
 39
20.0
 10
71.013554
 20
72.585691
 30
0.0
 40
0.38748
100
AcDbArc
 50
242.319552
 51
297.680448
  0
LINE
  5
1E7D
100
AcDbEntity
  8
OBJECT
 62
     2
100
AcDbLine
 39
20.0
 10
70.588554
 20
72.192557
 30
0.0
 11
70.588554
 21
72.150057
 31
0.0
  0
LINE
  5
1E7E
100
AcDbEntity
  8
OBJECT
 62
     2
100
AcDbLine
 39
20.0
 10
71.438554
 20
72.192557
 30
0.0
 11
71.438554
 21
72.150057
 31
0.0
  0
LINE
  5
1E7F
100
AcDbEntity
  8
OBJECT
 62
     2
100
AcDbLine
 39
20.0
 10
70.588554
 20
72.900057
 30
0.0
 11
70.588554
 21
73.100057
 31
0.0
  0
LINE
  5
1E80
100
AcDbEntity
  8
OBJECT
 62
     2
100
AcDbLine
 39
20.0
 10
71.438554
 20
72.900057
 30
0.0
 11
71.438554
 21
73.100057
 31
0.0
  0
LINE
  5
1E81
100
AcDbEntity
  8
OBJECT
 62
     2
100
AcDbLine
 39
20.0
 10
70.551054
 20
73.535057
 30
0.0
 11
70.551054
 21
73.552057
 31
0.0
  0
LINE
  5
1E82
100
AcDbEntity
  8
OBJECT
 62
     2
100
AcDbLine
 39
20.0
 10
71.476054
 20
73.535057
 30
0.0
 11
71.476054
 21
73.552057
 31
0.0
  0
ARC
  5
1E83
100
AcDbEntity
  8
OBJECT
 62
     2
100
AcDbCircle
 39
20.0
 10
71.013554
 20
72.828314
 30
0.0
 40
0.694216
100
AcDbArc
 50
71.088553
 51
108.911447
  0
LINE
  5
1E84
100
AcDbEntity
  8
OBJECT
 62
     2
100
AcDbLine
 39
20.0
 10
70.688554
 20
73.100057
 30
0.0
 11
70.688554
 21
73.485057
 31
0.0
  0
LINE
  5
1E85
100
AcDbEntity
  8
OBJECT
 62
     2
100
AcDbLine
 39
20.0
 10
70.788554
 20
73.100057
 30
0.0
 11
70.788554
 21
73.485057
 31
0.0
  0
LINE
  5
1E86
100
AcDbEntity
  8
OBJECT
 62
     2
100
AcDbLine
 39
20.0
 10
71.238554
 20
73.100057
 30
0.0
 11
71.238554
 21
73.485057
 31
0.0
  0
LINE
  5
1E87
100
AcDbEntity
  8
OBJECT
 62
     2
100
AcDbLine
 39
20.0
 10
71.338554
 20
73.100057
 30
0.0
 11
71.338554
 21
73.485057
 31
0.0
  0
LINE
  5
1E88
100
AcDbEntity
  8
OBJECT
 62
     2
100
AcDbLine
 39
20.0
 10
71.338554
 20
72.650057
 30
0.0
 11
71.338554
 21
72.900057
 31
0.0
  0
LINE
  5
1E89
100
AcDbEntity
  8
OBJECT
 62
     2
100
AcDbLine
 39
20.0
 10
71.238554
 20
72.650057
 30
0.0
 11
71.238554
 21
72.900057
 31
0.0
  0
LINE
  5
1E8A
100
AcDbEntity
  8
OBJECT
 62
     2
100
AcDbLine
 39
20.0
 10
70.788554
 20
72.650057
 30
0.0
 11
70.788554
 21
72.900057
 31
0.0
  0
LINE
  5
1E8B
100
AcDbEntity
  8
OBJECT
 62
     2
100
AcDbLine
 39
20.0
 10
70.688554
 20
72.650057
 30
0.0
 11
70.688554
 21
72.900057
 31
0.0
  0
CIRCLE
  5
1E8C
100
AcDbEntity
  8
OBJECT
100
AcDbCircle
 10
87.495476
 20
69.046131
 30
0.0
 40
5.0
  0
LINE
  5
1E8D
100
AcDbEntity
  8
CENTER
100
AcDbLine
 10
87.495476
 20
75.046131
 30
0.0
 11
87.495476
 21
63.046131
 31
0.0
  0
LINE
  5
1E8E
100
AcDbEntity
  8
CENTER
100
AcDbLine
 10
92.771211
 20
69.046131
 30
0.0
 11
81.495476
 21
69.046131
 31
0.0
  0
CIRCLE
  5
1E8F
100
AcDbEntity
  8
HIDDEN
100
AcDbCircle
 10
87.495476
 20
69.046131
 30
0.0
 40
4.0
  0
LWPOLYLINE
  5
1E90
100
AcDbEntity
  8
OBJECT
100
AcDbPolyline
 90
        6
 70
     1
 43
0.0
 10
87.351138
 20
64.796131
 10
87.206801
 20
64.546131
 10
87.351138
 20
64.296131
 10
87.639813
 20
64.296131
 10
87.784151
 20
64.546131
 10
87.639813
 20
64.796131
  0
LWPOLYLINE
  5
1E98
100
AcDbEntity
  8
OBJECT
100
AcDbPolyline
 90
        6
 70
     1
 43
0.0
 10
91.745476
 20
68.901793
 10
91.995476
 20
68.757456
 10
92.245476
 20
68.901793
 10
92.245476
 20
69.190468
 10
91.995476
 20
69.334806
 10
91.745476
 20
69.190468
  0
LWPOLYLINE
  5
1EA0
100
AcDbEntity
  8
OBJECT
100
AcDbPolyline
 90
        6
 70
     1
 43
0.0
 10
87.639813
 20
73.296131
 10
87.784151
 20
73.546131
 10
87.639813
 20
73.796131
 10
87.351138
 20
73.796131
 10
87.206801
 20
73.546131
 10
87.351138
 20
73.296131
  0
LWPOLYLINE
  5
1EA8
100
AcDbEntity
  8
OBJECT
100
AcDbPolyline
 90
        6
 70
     1
 43
0.0
 10
83.245476
 20
69.190468
 10
82.995476
 20
69.334806
 10
82.745476
 20
69.190468
 10
82.745476
 20
68.901793
 10
82.995476
 20
68.757456
 10
83.245476
 20
68.901793
  0
CIRCLE
  5
1EB0
100
AcDbEntity
  8
OBJECT
  6
CONTINUOUS
 62
     2
100
AcDbCircle
 10
88.494988
 20
66.633091
 30
0.0
 40
0.500006
  0
CIRCLE
  5
1EB1
100
AcDbEntity
  8
OBJECT
  6
CONTINUOUS
 62
     2
100
AcDbCircle
 10
85.082436
 20
68.046619
 30
0.0
 40
0.5
  0
CIRCLE
  5
1EB2
100
AcDbEntity
  8
HIDDEN
100
AcDbCircle
 10
87.495476
 20
69.046131
 30
0.0
 40
0.6575
  0
CIRCLE
  5
1EB3
100
AcDbEntity
  8
OBJECT
  6
CONTINUOUS
 62
     2
100
AcDbCircle
 10
89.908516
 20
70.045643
 30
0.0
 40
0.499992
  0
CIRCLE
  5
1EB4
100
AcDbEntity
  8
OBJECT
  6
CONTINUOUS
 62
     2
100
AcDbCircle
 10
86.495964
 20
71.459171
 30
0.0
 40
0.499986
  0
TEXT
  5
2351
100
AcDbEntity
  8
DIM
 62
     6
100
AcDbText
 10
72.909004
 20
79.485353
 30
0.0
 40
0.323438
  1
FLOAT CONTROL PLATES ARE DESIGNED TO BE USED ON STEEL
  7
ROMANS
 72
     1
 11
80.910232
 21
79.485353
 31
0.0
100
AcDbText
  0
TEXT
  5
2352
100
AcDbEntity
  8
DIM
 62
     6
100
AcDbText
 10
70.344483
 20
80.230385
 30
0.0
 40
0.646875
  1
INSPECTION AND FLOAT CONTROL PLATES
  7
ROMAND
 72
     1
 11
80.771492
 21
80.230385
 31
0.0
100
AcDbText
  0
TEXT
  5
2353
100
AcDbEntity
  8
DIM
 62
     6
100
AcDbText
 10
75.388692
 20
79.038909
 30
0.0
 40
0.323438
  1
COVERS AND UTILIZE THE 8" ACCESS HOLE.
  7
ROMANS
 72
     1
 11
80.910232
 21
79.038909
 31
0.0
100
AcDbText
  0
LWPOLYLINE
  5
2354
100
AcDbEntity
  8
DIM
 62
     6
100
AcDbPolyline
 90
        2
 70
     0
 43
0.053906
 39
4.3125
 10
70.289127
 20
79.988059
 10
91.268768
 20
79.988059
  0
TEXT
  5
2358
100
AcDbEntity
  8
DIM
 62
     6
100
AcDbText
 10
73.863915
 20
78.623398
 30
0.0
 40
0.323438
  1
CORD LEVELS ARE SET WITH THE CORD GRIPS.  CORDS
  7
ROMANS
 72
     1
 11
80.910232
 21
78.623398
 31
0.0
100
AcDbText
  0
TEXT
  5
2359
100
AcDbEntity
  8
DIM
 62
     6
100
AcDbText
 10
72.662576
 20
78.176954
 30
0.0
 40
0.323438
  1
CAN BE FASTENED TO THE OPTIONAL GALVANIZED OR FIBERGLASS
  7
ROMANS
 72
     1
 11
80.910232
 21
78.176954
 31
0.0
100
AcDbText
  0
TEXT
  5
235A
100
AcDbEntity
  8
DIM
 62
     6
100
AcDbText
 10
73.409562
 20
77.716076
 30
0.0
 40
0.323438
  1
FLOAT POLE.  INSPECTION PLATES CAN BE ORDERED WITH 
  7
ROMANS
 72
     1
 11
80.910232
 21
77.716076
 31
0.0
100
AcDbText
  0
TEXT
  5
235B
100
AcDbEntity
  8
DIM
 62
     6
100
AcDbText
 10
69.797844
 20
77.269632
 30
0.0
 40
0.323438
  1
1, 2, 3 OR 4 CORD LEVEL GRIPS AND AN OPTIONAL THREADED FLOAT POLE COUPLING.
  7
ROMANS
 72
     1
 11
80.910232
 21
77.269632
 31
0.0
100
AcDbText
  0
TEXT
  5
235C
100
AcDbEntity
  8
DIM
100
AcDbText
 10
68.705888
 20
56.539531
 30
0.0
 40
0.255
  1
INSTALLATION INSTRUCTIONS
  7
ROMANS
100
AcDbText
  0
TEXT
  5
235D
100
AcDbEntity
  8
DIM
100
AcDbText
 10
68.705888
 20
56.126674
 30
0.0
 40
0.255
  1
 1. REMOVE CONTROL PLATE FROM COVER.
  7
ROMANS
100
AcDbText
  0
TEXT
  5
235E
100
AcDbEntity
  8
DIM
100
AcDbText
 10
68.705888
 20
55.713816
 30
0.0
 40
0.255
  1
 2. LOOSEN GRIPS AND INSERT CORDS.
  7
ROMANS
100
AcDbText
  0
TEXT
  5
235F
100
AcDbEntity
  8
DIM
100
AcDbText
 10
68.705888
 20
55.300959
 30
0.0
 40
0.255
  1
 3. SET CORD LEVELS AND TIGHTEN GRIPS.
  7
ROMANS
100
AcDbText
  0
TEXT
  5
2360
100
AcDbEntity
  8
DIM
100
AcDbText
 10
68.705888
 20
54.888102
 30
0.0
 40
0.255
  1
 4. INSTALL FLOATS AND FASTEN TO POLE.
  7
ROMANS
100
AcDbText
  0
TEXT
  5
2361
100
AcDbEntity
  8
DIM
100
AcDbText
 10
68.705888
 20
54.475245
 30
0.0
 40
0.255
  1
 5. APPLY GASKET TO COVER OR PLATE.
  7
ROMANS
100
AcDbText
  0
TEXT
  5
2362
100
AcDbEntity
  8
DIM
100
AcDbText
 10
68.705888
 20
54.062388
 30
0.0
 40
0.255
  1
 6. PLACE PLATE ON COVER AND TIGHTEN 
  7
ROMANS
100
AcDbText
  0
TEXT
  5
2363
100
AcDbEntity
  8
DIM
100
AcDbText
 10
69.317152
 20
53.649531
 30
0.0
 40
0.255
  1
 BOLTS.
  7
ROMANS
100
AcDbText
  0
LINE
  5
2364
100
AcDbEntity
  8
DIM
100
AcDbLine
 10
68.697765
 20
56.464299
 30
0.0
 11
74.067004
 21
56.464299
 31
0.0
  0
TEXT
  5
2365
100
AcDbEntity
  8
DIM
100
AcDbText
 10
76.706249
 20
70.672087
 30
0.0
 40
0.3
  1
7",8" OR 10" DIA.
  7
ROMANS
 11
76.706249
 21
70.822087
 31
0.0
100
AcDbText
 73
     2
  0
TEXT
  5
2366
100
AcDbEntity
  8
DIM
100
AcDbText
 10
82.319972
 20
60.619929
 30
0.0
 40
0.3
  1
 INO1- ONE CORD LEVEL GRIP
  7
ROMANS
100
AcDbText
  0
TEXT
  5
2367
100
AcDbEntity
  8
DIM
100
AcDbText
 10
82.319972
 20
60.094889
 30
0.0
 40
0.3
  1
 IN02- TWO CORD LEVEL GRIPS
  7
ROMANS
100
AcDbText
  0
TEXT
  5
2368
100
AcDbEntity
  8
DIM
100
AcDbText
 10
82.319972
 20
59.571841
 30
0.0
 40
0.3
  1
 INO3- THREE CORD LEVEL GRIPS
  7
ROMANS
100
AcDbText
  0
TEXT
  5
2369
100
AcDbEntity
  8
DIM
100
AcDbText
 10
82.319972
 20
59.028135
 30
0.0
 40
0.3
  1
 INO4- FOUR CORD LEVEL GRIPS
  7
ROMANS
100
AcDbText
  0
ARC
  5
236A
100
AcDbEntity
  8
OBJECT
100
AcDbCircle
 10
73.842455
 20
73.416428
 30
0.0
 40
2.968284
100
AcDbArc
 50
132.079407
 51
174.478049
  0
ARC
  5
236B
100
AcDbEntity
  8
OBJECT
100
AcDbCircle
 10
73.842455
 20
73.416428
 30
0.0
 40
2.718284
100
AcDbArc
 50
132.079407
 51
173.968392
  0
SOLID
  5
236C
100
AcDbEntity
  8
DIM
100
AcDbTrace
 10
71.588692
 20
74.529574
 30
0.0
 11
71.558809
 21
74.607365
 31
0.0
 12
71.340377
 22
74.47882
 32
0.0
 13
71.340377
 23
74.47882
 33
0.0
  0
LINE
  5
236D
100
AcDbEntity
  8
DIM
100
AcDbLine
 10
71.573751
 20
74.56847
 30
0.0
 11
72.960007
 21
75.100993
 31
0.0
  0
LINE
  5
236E
100
AcDbEntity
  8
DIM
100
AcDbLine
 10
72.960007
 20
75.100993
 30
0.0
 11
73.210007
 21
75.100993
 31
0.0
  0
TEXT
  5
236F
100
AcDbEntity
  8
DIM
100
AcDbText
 10
73.300007
 20
74.950993
 30
0.0
 40
0.3
  1
FLOAT CORD
  7
ROMANS
 11
73.300007
 21
75.100993
 31
0.0
100
AcDbText
 73
     2
  0
SOLID
  5
2370
100
AcDbEntity
  8
DIM
100
AcDbTrace
 10
71.889356
 20
72.970925
 30
0.0
 11
71.839818
 21
73.037936
 31
0.0
 12
71.663554
 22
72.855818
 32
0.0
 13
71.663554
 23
72.855818
 33
0.0
  0
LINE
  5
2371
100
AcDbEntity
  8
DIM
100
AcDbLine
 10
71.864587
 20
73.00443
 30
0.0
 11
72.982713
 21
73.830995
 31
0.0
  0
LINE
  5
2372
100
AcDbEntity
  8
DIM
100
AcDbLine
 10
72.982713
 20
73.830995
 30
0.0
 11
73.232713
 21
73.830995
 31
0.0
  0
TEXT
  5
2373
100
AcDbEntity
  8
DIM
100
AcDbText
 10
73.322713
 20
73.680995
 30
0.0
 40
0.3
  1
ADJUSTMENT NUT
  7
ROMANS
 11
73.322713
 21
73.830995
 31
0.0
100
AcDbText
 73
     2
  0
SOLID
  5
2374
100
AcDbEntity
  8
DIM
100
AcDbTrace
 10
72.318293
 20
72.304854
 30
0.0
 11
72.358716
 21
72.377727
 31
0.0
 12
72.119885
 22
72.462557
 32
0.0
 13
72.119885
 23
72.462557
 33
0.0
  0
LINE
  5
2375
100
AcDbEntity
  8
DIM
100
AcDbLine
 10
72.338504
 20
72.34129
 30
0.0
 11
73.005419
 21
71.971356
 31
0.0
  0
LINE
  5
2376
100
AcDbEntity
  8
DIM
100
AcDbLine
 10
73.005419
 20
71.971356
 30
0.0
 11
73.255419
 21
71.971356
 31
0.0
  0
TEXT
  5
2377
100
AcDbEntity
  8
DIM
100
AcDbText
 10
73.345419
 20
71.821356
 30
0.0
 40
0.3
  1
INSPECTION PLATE
  7
ROMANS
 11
73.345419
 21
71.971356
 31
0.0
100
AcDbText
 73
     2
  0
SOLID
  5
2378
100
AcDbEntity
  8
DIM
100
AcDbTrace
 10
71.74882
 20
72.059478
 30
0.0
 11
71.798723
 21
72.126218
 31
0.0
 12
71.573554
 22
72.242557
 32
0.0
 13
71.573554
 23
72.242557
 33
0.0
  0
LINE
  5
2379
100
AcDbEntity
  8
DIM
100
AcDbLine
 10
71.773771
 20
72.092848
 30
0.0
 11
73.028122
 21
71.15493
 31
0.0
  0
LINE
  5
237A
100
AcDbEntity
  8
DIM
100
AcDbLine
 10
73.028122
 20
71.15493
 30
0.0
 11
73.278122
 21
71.15493
 31
0.0
  0
TEXT
  5
237B
100
AcDbEntity
  8
DIM
100
AcDbText
 10
73.368122
 20
71.00493
 30
0.0
 40
0.3
  1
CONDUIT NUT
  7
ROMANS
 11
73.368122
 21
71.15493
 31
0.0
100
AcDbText
 73
     2
  0
TEXT
  5
237C
100
AcDbEntity
  8
DIM
100
AcDbText
 10
77.941618
 20
63.860487
 30
0.0
 40
0.3
  1
SPECIFY SIZE
  7
ROMANS
 11
77.941618
 21
64.010487
 31
0.0
100
AcDbText
 73
     2
  0
TEXT
  5
237D
100
AcDbEntity
  8
DIM
100
AcDbText
 10
80.037316
 20
73.192635
 30
0.0
 40
0.3
  1
CORD GRIP
  7
ROMANS
 11
80.037316
 21
73.342635
 31
0.0
100
AcDbText
 73
     2
  0
TEXT
  5
237E
100
AcDbEntity
  8
DIM
100
AcDbText
 10
80.037316
 20
72.654447
 30
0.0
 40
0.3
  1
HOLES
  7
ROMANS
 11
80.037316
 21
72.804447
 31
0.0
100
AcDbText
 73
     2
  0
SOLID
  5
237F
100
AcDbEntity
  8
DIM
100
AcDbTrace
 10
86.840855
 20
68.417955
 30
0.0
 11
86.899751
 21
68.359001
 31
0.0
 12
87.047166
 22
68.565168
 32
0.0
 13
87.047166
 23
68.565168
 33
0.0
  0
LINE
  5
2380
100
AcDbEntity
  8
DIM
100
AcDbLine
 10
86.870303
 20
68.388478
 30
0.0
 11
82.974354
 21
64.496345
 31
0.0
  0
LINE
  5
2381
100
AcDbEntity
  8
DIM
100
AcDbLine
 10
82.974354
 20
64.496345
 30
0.0
 11
82.724354
 21
64.496345
 31
0.0
  0
TEXT
  5
2382
100
AcDbEntity
  8
DIM
100
AcDbText
 10
77.934354
 20
64.346345
 30
0.0
 40
0.3
  1
THREADED COUPLING
  7
ROMANS
 72
     2
 11
82.634354
 21
64.496345
 31
0.0
100
AcDbText
 73
     2
  0
SOLID
  5
2383
100
AcDbEntity
  8
DIM
100
AcDbTrace
 10
85.839104
 20
71.813863
 30
0.0
 11
85.797628
 21
71.741584
 31
0.0
 12
86.035203
 22
71.653297
 32
0.0
 13
86.035203
 23
71.653297
 33
0.0
  0
LINE
  5
2384
100
AcDbEntity
  8
DIM
100
AcDbLine
 10
85.818366
 20
71.777723
 30
0.0
 11
82.974354
 21
73.409688
 31
0.0
  0
SOLID
  5
2385
100
AcDbEntity
  8
DIM
100
AcDbTrace
 10
82.439142
 20
70.448599
 30
0.0
 11
82.41277
 21
70.369549
 31
0.0
 12
82.663107
 22
70.329959
 32
0.0
 13
82.663107
 23
70.329959
 33
0.0
  0
LINE
  5
2386
100
AcDbEntity
  8
DIM
100
AcDbLine
 10
82.425956
 20
70.409074
 30
0.0
 11
81.155694
 21
70.832844
 31
0.0
  0
LINE
  5
2387
100
AcDbEntity
  8
DIM
100
AcDbLine
 10
81.155694
 20
70.832844
 30
0.0
 11
80.905694
 21
70.832844
 31
0.0
  0
LINE
  5
2388
100
AcDbEntity
  8
DIM
100
AcDbLine
 10
82.974354
 20
73.409688
 30
0.0
 11
82.724354
 21
73.409688
 31
0.0
  0
TEXT
  5
2389
100
AcDbEntity
  8
DIM
100
AcDbText
 10
68.521294
 20
69.344835
 30
0.0
 40
0.3
  1
OPTIONAL CORD LEVEL GRIP DETAIL
  7
ROMANS
100
AcDbText
  0
LINE
  5
238A
100
AcDbEntity
  8
DIM
100
AcDbLine
 10
68.487126
 20
69.208333
 30
0.0
 11
76.793948
 21
69.208333
 31
0.0
  0
SOLID
  5
238B
100
AcDbEntity
  8
DIM
100
AcDbTrace
 10
87.019566
 20
73.728675
 30
0.0
 11
86.989218
 21
73.651065
 31
0.0
 12
87.237225
 22
73.598827
 32
0.0
 13
87.237225
 23
73.598827
 33
0.0
  0
LINE
  5
238C
100
AcDbEntity
  8
DIM
100
AcDbLine
 10
87.004392
 20
73.68987
 30
0.0
 11
82.992992
 21
75.258423
 31
0.0
  0
LINE
  5
238D
100
AcDbEntity
  8
DIM
100
AcDbLine
 10
82.992992
 20
75.258423
 30
0.0
 11
82.742992
 21
75.258423
 31
0.0
  0
TEXT
  5
238E
100
AcDbEntity
  8
DIM
100
AcDbText
 10
79.938706
 20
75.108423
 30
0.0
 40
0.3
  1
3/8" BOLTS
  7
ROMANS
 72
     2
 11
82.652992
 21
75.258423
 31
0.0
100
AcDbText
 73
     2
  0
TEXT
  5
238F
100
AcDbEntity
  8
DIM
100
AcDbText
 10
80.037316
 20
73.737067
 30
0.0
 40
0.3
  1
OPTIONAL
  7
ROMANS
 11
80.037316
 21
73.887067
 31
0.0
100
AcDbText
 73
     2
  0
TEXT
  5
2390
100
AcDbEntity
  8
DIM
100
AcDbText
 10
82.319972
 20
61.157023
 30
0.0
 40
0.3
  1
 INOO- BLANK INSPECTION PLATE
  7
ROMANS
100
AcDbText
  0
TEXT
  5
2391
100
AcDbEntity
  8
DIM
100
AcDbText
 10
82.733346
 20
62.173298
 30
0.0
 40
0.3
  1
PART
  7
ROMANS
100
AcDbText
  0
TEXT
  5
2392
100
AcDbEntity
  8
DIM
100
AcDbText
 10
82.733346
 20
61.687584
 30
0.0
 40
0.3
  1
N0.      
  7
ROMANS
100
AcDbText
  0
TEXT
  5
2393
100
AcDbEntity
  8
DIM
100
AcDbText
 10
84.472295
 20
61.689142
 30
0.0
 40
0.3
  1
INSPECTION PLATE WITH:
  7
ROMANS
100
AcDbText
  0
ARC
  5
2394
100
AcDbEntity
  8
OBJECT
100
AcDbCircle
 10
83.648721
 20
73.219698
 30
0.0
 40
12.769889
100
AcDbArc
 50
184.80488
 51
195.060804
  0
ARC
  5
2395
100
AcDbEntity
  8
OBJECT
100
AcDbCircle
 10
83.648721
 20
73.219698
 30
0.0
 40
12.519889
100
AcDbArc
 50
184.901058
 51
195.060804
  0
LINE
  5
2396
100
AcDbEntity
  8
OBJECT
  6
CONTINUOUS
 62
     2
100
AcDbLine
 39
50.0
 10
74.37111
 20
60.714461
 30
0.0
 11
71.784951
 21
60.714461
 31
0.0
  0
LINE
  5
2397
100
AcDbEntity
  8
OBJECT
  6
CONTINUOUS
 62
     2
100
AcDbLine
 39
50.0
 10
74.308084
 20
60.901961
 30
0.0
 11
71.721926
 21
60.901961
 31
0.0
  0
LINE
  5
2398
100
AcDbEntity
  8
OBJECT
 62
     2
100
AcDbLine
 39
20.0
 10
73.351082
 20
59.214461
 30
0.0
 11
73.351082
 21
60.584121
 31
0.0
  0
LINE
  5
2399
100
AcDbEntity
  8
OBJECT
 62
     2
100
AcDbLine
 39
20.0
 10
72.714086
 20
59.214461
 30
0.0
 11
72.714086
 21
60.584121
 31
0.0
  0
LINE
  5
239A
100
AcDbEntity
  8
OBJECT
  6
CONTINUOUS
 62
     2
100
AcDbLine
 39
50.0
 10
73.351082
 20
59.214461
 30
0.0
 11
72.714086
 21
59.214461
 31
0.0
  0
LINE
  5
239B
100
AcDbEntity
  8
OBJECT
100
AcDbLine
 10
72.714086
 20
60.584121
 30
0.0
 11
72.589835
 21
60.714461
 31
0.0
  0
LINE
  5
239C
100
AcDbEntity
  8
OBJECT
100
AcDbLine
 10
72.714086
 20
60.584121
 30
0.0
 11
73.351082
 21
60.584121
 31
0.0
  0
LINE
  5
239D
100
AcDbEntity
  8
OBJECT
100
AcDbLine
 10
73.351082
 20
60.584121
 30
0.0
 11
73.475334
 21
60.714461
 31
0.0
  0
LINE
  5
239E
100
AcDbEntity
  8
HIDDEN
100
AcDbLine
 10
72.764086
 20
60.076911
 30
0.0
 11
73.301082
 21
60.076911
 31
0.0
  0
LINE
  5
239F
100
AcDbEntity
  8
HIDDEN
100
AcDbLine
 10
72.764086
 20
59.216944
 30
0.0
 11
73.301082
 21
59.24361
 31
0.0
  0
LINE
  5
23A0
100
AcDbEntity
  8
HIDDEN
100
AcDbLine
 10
72.764086
 20
59.266978
 30
0.0
 11
73.301082
 21
59.293645
 31
0.0
  0
LINE
  5
23A1
100
AcDbEntity
  8
HIDDEN
100
AcDbLine
 10
72.764086
 20
59.317013
 30
0.0
 11
73.301082
 21
59.343679
 31
0.0
  0
LINE
  5
23A2
100
AcDbEntity
  8
HIDDEN
100
AcDbLine
 10
72.764086
 20
59.367047
 30
0.0
 11
73.301082
 21
59.393714
 31
0.0
  0
LINE
  5
23A3
100
AcDbEntity
  8
HIDDEN
100
AcDbLine
 10
72.764086
 20
59.417082
 30
0.0
 11
73.301082
 21
59.443748
 31
0.0
  0
LINE
  5
23A4
100
AcDbEntity
  8
HIDDEN
100
AcDbLine
 10
72.764086
 20
59.467117
 30
0.0
 11
73.301082
 21
59.493783
 31
0.0
  0
LINE
  5
23A5
100
AcDbEntity
  8
HIDDEN
100
AcDbLine
 10
72.764086
 20
59.517151
 30
0.0
 11
73.301082
 21
59.543818
 31
0.0
  0
LINE
  5
23A6
100
AcDbEntity
  8
HIDDEN
100
AcDbLine
 10
72.764086
 20
59.567186
 30
0.0
 11
73.301082
 21
59.593852
 31
0.0
  0
LINE
  5
23A7
100
AcDbEntity
  8
HIDDEN
100
AcDbLine
 10
72.764086
 20
59.61722
 30
0.0
 11
73.301082
 21
59.643887
 31
0.0
  0
LINE
  5
23A8
100
AcDbEntity
  8
HIDDEN
100
AcDbLine
 10
72.764086
 20
59.667255
 30
0.0
 11
73.301082
 21
59.693921
 31
0.0
  0
LINE
  5
23A9
100
AcDbEntity
  8
HIDDEN
100
AcDbLine
 10
72.764086
 20
59.71729
 30
0.0
 11
73.301082
 21
59.743956
 31
0.0
  0
LINE
  5
23AA
100
AcDbEntity
  8
HIDDEN
100
AcDbLine
 10
72.764086
 20
59.767324
 30
0.0
 11
73.301082
 21
59.793991
 31
0.0
  0
LINE
  5
23AB
100
AcDbEntity
  8
HIDDEN
100
AcDbLine
 10
72.764086
 20
59.817359
 30
0.0
 11
73.301082
 21
59.844025
 31
0.0
  0
LINE
  5
23AC
100
AcDbEntity
  8
HIDDEN
100
AcDbLine
 10
72.764086
 20
59.867394
 30
0.0
 11
73.301082
 21
59.89406
 31
0.0
  0
LINE
  5
23AD
100
AcDbEntity
  8
HIDDEN
100
AcDbLine
 10
72.764086
 20
59.917428
 30
0.0
 11
73.301082
 21
59.944095
 31
0.0
  0
LINE
  5
23AE
100
AcDbEntity
  8
HIDDEN
100
AcDbLine
 10
72.764086
 20
59.967463
 30
0.0
 11
73.301082
 21
59.994129
 31
0.0
  0
LINE
  5
23AF
100
AcDbEntity
  8
HIDDEN
100
AcDbLine
 10
72.764086
 20
60.017497
 30
0.0
 11
73.301082
 21
60.044164
 31
0.0
  0
LINE
  5
23B0
100
AcDbEntity
  8
HIDDEN
100
AcDbLine
 10
72.764086
 20
60.06691
 30
0.0
 11
73.032836
 21
60.076911
 31
0.0
  0
TEXT
  5
23B1
100
AcDbEntity
  8
DIM
100
AcDbText
 10
69.789972
 20
58.273186
 30
0.0
 40
0.3
  1
THREADED COUPLING DETAIL FOR 
  7
ROMANS
100
AcDbText
  0
LINE
  5
23B2
100
AcDbEntity
  8
DIM
100
AcDbLine
 10
69.755805
 20
58.136684
 30
0.0
 11
77.45351
 21
58.136684
 31
0.0
  0
TEXT
  5
23B3
100
AcDbEntity
  8
DIM
100
AcDbText
 10
69.755311
 20
57.680013
 30
0.0
 40
0.3
  1
OPTIONAL THREADED FLOAT POLE
  7
ROMANS
100
AcDbText
  0
LINE
  5
23B4
100
AcDbEntity
  8
DIM
100
AcDbLine
 10
69.699072
 20
57.543513
 30
0.0
 11
77.456472
 21
57.543513
 31
0.0
  0
LWPOLYLINE
  5
23B5
100
AcDbEntity
  8
DIM
100
AcDbPolyline
 90
        6
 70
     0
 43
0.0
 10
71.784951
 20
61.401011
 10
71.784951
 20
60.92894
 10
71.610826
 20
60.854402
 10
72.100035
 20
60.854402
 10
71.784951
 20
60.763301
 10
71.784951
 20
60.316076
  0
LWPOLYLINE
  5
23BD
100
AcDbEntity
  8
DIM
100
AcDbPolyline
 90
        6
 70
     0
 43
0.0
 10
74.37111
 20
61.401011
 10
74.37111
 20
60.92894
 10
74.196984
 20
60.854402
 10
74.686194
 20
60.854402
 10
74.37111
 20
60.763301
 10
74.37111
 20
60.316076
  0
LWPOLYLINE
  5
23C5
100
AcDbEntity
  8
DIM
100
AcDbPolyline
 90
        6
 70
     0
 43
0.0
 10
73.088916
 20
73.149108
 10
73.088916
 20
72.677038
 10
72.91479
 20
72.6025
 10
73.403999
 20
72.6025
 10
73.088916
 20
72.511399
 10
73.088916
 20
72.064174
  0
LWPOLYLINE
  5
23CD
100
AcDbEntity
  8
DIM
100
AcDbPolyline
 90
        6
 70
     0
 43
0.0
 10
69.618369
 20
73.149108
 10
69.618369
 20
72.677038
 10
69.444243
 20
72.6025
 10
69.933452
 20
72.6025
 10
69.618369
 20
72.511399
 10
69.618369
 20
72.064174
  0
TEXT
  5
23D6
100
AcDbEntity
  8
DIM
100
AcDbText
 10
68.870429
 20
68.087692
 30
0.0
 40
0.3
  1
PART
  7
ROMANS
100
AcDbText
  0
TEXT
  5
23D7
100
AcDbEntity
  8
DIM
100
AcDbText
 10
68.870429
 20
67.601978
 30
0.0
 40
0.3
  1
NO.
  7
ROMANS
100
AcDbText
  0
TEXT
  5
23D8
100
AcDbEntity
  8
DIM
100
AcDbText
 10
71.419788
 20
67.598174
 30
0.0
 40
0.3
  1
NPT
  7
ROMANS
100
AcDbText
  0
TEXT
  5
23D9
100
AcDbEntity
  8
DIM
100
AcDbText
 10
73.048063
 20
68.087692
 30
0.0
 40
0.3
  1
SEALS CORDS
  7
ROMANS
100
AcDbText
  0
TEXT
  5
23DA
100
AcDbEntity
  8
DIM
100
AcDbText
 10
73.870718
 20
67.601978
 30
0.0
 40
0.3
  1
FROM:
  7
ROMANS
100
AcDbText
  0
TEXT
  5
23DB
100
AcDbEntity
  8
DIM
100
AcDbText
 10
68.870429
 20
67.087692
 30
0.0
 40
0.3
  1
GRIP050
  7
ROMANS
100
AcDbText
  0
TEXT
  5
23DC
100
AcDbEntity
  8
DIM
100
AcDbText
 10
71.299579
 20
67.087692
 30
0.0
 40
0.3
  1
1/2"
  7
ROMANS
100
AcDbText
  0
TEXT
  5
23DD
100
AcDbEntity
  8
DIM
100
AcDbText
 10
73.165302
 20
67.087692
 30
0.0
 40
0.3
  1
.170- .470
  7
ROMANS
100
AcDbText
  0
TEXT
  5
23DE
100
AcDbEntity
  8
DIM
100
AcDbText
 10
68.870429
 20
66.587692
 30
0.0
 40
0.3
  1
GRIP075
  7
ROMANS
100
AcDbText
  0
TEXT
  5
23DF
100
AcDbEntity
  8
DIM
100
AcDbText
 10
71.299579
 20
66.587692
 30
0.0
 40
0.3
  1
3/4"
  7
ROMANS
100
AcDbText
  0
TEXT
  5
23E0
100
AcDbEntity
  8
DIM
100
AcDbText
 10
73.165302
 20
66.587692
 30
0.0
 40
0.3
  1
.450- .709
  7
ROMANS
100
AcDbText
  0
TEXT
  5
23E1
100
AcDbEntity
  8
DIM
100
AcDbText
 10
68.870429
 20
66.087692
 30
0.0
 40
0.3
  1
GRIP100
  7
ROMANS
100
AcDbText
  0
TEXT
  5
23E2
100
AcDbEntity
  8
DIM
100
AcDbText
 10
71.299579
 20
66.087692
 30
0.0
 40
0.3
  1
  1"
  7
ROMANS
100
AcDbText
  0
TEXT
  5
23E3
100
AcDbEntity
  8
DIM
100
AcDbText
 10
73.165302
 20
66.087692
 30
0.0
 40
0.3
  1
.590-1.000
  7
ROMANS
100
AcDbText
  0
SOLID
  5
23E4
100
AcDbEntity
  8
DIM
100
AcDbTrace
 10
73.277899
 20
61.034754
 30
0.0
 11
73.223162
 21
61.09759
 31
0.0
 12
73.062023
 22
60.901961
 32
0.0
 13
73.062023
 23
60.901961
 33
0.0
  0
LINE
  5
23E5
100
AcDbEntity
  8
DIM
100
AcDbLine
 10
73.25053
 20
61.066172
 30
0.0
 11
74.918884
 21
62.519501
 31
0.0
  0
LINE
  5
23E6
100
AcDbEntity
  8
DIM
100
AcDbLine
 10
74.918884
 20
62.519501
 30
0.0
 11
75.168884
 21
62.519501
 31
0.0
  0
TEXT
  5
23E7
100
AcDbEntity
  8
DIM
100
AcDbText
 10
75.258884
 20
62.369501
 30
0.0
 40
0.3
  1
INSPECTION PLATE
  7
ROMANS
 11
75.258884
 21
62.519501
 31
0.0
100
AcDbText
 73
     2
  0
SOLID
  5
23E8
100
AcDbEntity
  8
DIM
100
AcDbTrace
 10
73.561505
 20
60.210414
 30
0.0
 11
73.59595
 21
60.286296
 31
0.0
 12
73.351082
 22
60.351688
 32
0.0
 13
73.351082
 23
60.351688
 33
0.0
  0
LINE
  5
23E9
100
AcDbEntity
  8
DIM
100
AcDbLine
 10
73.578728
 20
60.248355
 30
0.0
 11
74.942998
 21
59.337034
 31
0.0
  0
LINE
  5
23EA
100
AcDbEntity
  8
DIM
100
AcDbLine
 10
74.942998
 20
59.337034
 30
0.0
 11
75.192998
 21
59.337034
 31
0.0
  0
TEXT
  5
23EB
100
AcDbEntity
  8
DIM
100
AcDbText
 10
75.282998
 20
59.187034
 30
0.0
 40
0.3
  1
THREADED COUPLING
  7
ROMANS
 11
75.282998
 21
59.337034
 31
0.0
100
AcDbText
 73
     2
  0
TEXT
  5
23EC
100
AcDbEntity
  8
DIM
100
AcDbText
 10
77.941618
 20
64.856231
 30
0.0
 40
0.3
  1
OPTIONAL
  7
ROMANS
 11
77.941618
 21
65.006231
 31
0.0
100
AcDbText
 73
     2
  0
TEXT
  5
23ED
100
AcDbEntity
  8
DIM
100
AcDbText
 10
83.206842
 20
58.414038
 30
0.0
 40
0.225
  1
NOTE: SPECIFY NUMBER OF CORD
  7
ROMANS
100
AcDbText
  0
TEXT
  5
23EE
100
AcDbEntity
  8
DIM
100
AcDbText
 10
83.206842
 20
58.049752
 30
0.0
 40
0.225
  1
 GRIPS IF MORE THAN FOUR ARE
  7
ROMANS
100
AcDbText
  0
TEXT
  5
23EF
100
AcDbEntity
  8
DIM
100
AcDbText
 10
83.206842
 20
57.685466
 30
0.0
 40
0.225
  1
 REQUIRED.
  7
ROMANS
100
AcDbText
  0
LINE
  5
23F0
100
AcDbEntity
  8
HIDDEN
 62
     2
100
AcDbLine
 39
20.0
 10
72.764086
 20
59.214461
 30
0.0
 11
72.764086
 21
60.584121
 31
0.0
  0
LINE
  5
23F1
100
AcDbEntity
  8
HIDDEN
 62
     2
100
AcDbLine
 39
20.0
 10
73.301082
 20
59.214461
 30
0.0
 11
73.301082
 21
60.584121
 31
0.0
  0
LWPOLYLINE
  5
23F2
100
AcDbEntity
  8
DIM
100
AcDbPolyline
 90
        2
 70
     0
 43
0.03
 10
82.509695
 20
62.639372
 10
90.443292
 20
62.639372
  0
LWPOLYLINE
  5
23F6
100
AcDbEntity
  8
DIM
100
AcDbPolyline
 90
        2
 70
     0
 43
0.03
 10
82.509695
 20
62.639372
 10
82.509695
 20
58.919294
  0
LWPOLYLINE
  5
23FA
100
AcDbEntity
  8
DIM
100
AcDbPolyline
 90
        2
 70
     0
 43
0.03
 10
90.443292
 20
62.639372
 10
90.443292
 20
58.919294
  0
LWPOLYLINE
  5
23FE
100
AcDbEntity
  8
DIM
100
AcDbPolyline
 90
        2
 70
     0
 43
0.03
 10
82.509695
 20
58.919294
 10
90.443292
 20
58.919294
  0
LWPOLYLINE
  5
2402
100
AcDbEntity
  8
DIM
100
AcDbPolyline
 90
        2
 70
     0
 43
0.03
 10
82.509695
 20
59.456458
 10
90.443292
 20
59.456458
  0
LWPOLYLINE
  5
2406
100
AcDbEntity
  8
DIM
100
AcDbPolyline
 90
        2
 70
     0
 43
0.03
 10
82.509695
 20
59.993622
 10
90.443292
 20
59.993622
  0
LWPOLYLINE
  5
240A
100
AcDbEntity
  8
DIM
100
AcDbPolyline
 90
        2
 70
     0
 43
0.03
 10
82.509695
 20
60.530786
 10
90.443292
 20
60.530786
  0
LWPOLYLINE
  5
240E
100
AcDbEntity
  8
DIM
100
AcDbPolyline
 90
        2
 70
     0
 43
0.03
 10
82.509695
 20
61.06795
 10
90.443292
 20
61.06795
  0
LWPOLYLINE
  5
2412
100
AcDbEntity
  8
DIM
100
AcDbPolyline
 90
        2
 70
     0
 43
0.03
 10
82.509695
 20
61.605114
 10
90.443292
 20
61.605114
  0
LWPOLYLINE
  5
2416
100
AcDbEntity
  8
DIM
100
AcDbPolyline
 90
        2
 70
     0
 43
0.03
 10
76.349487
 20
68.692785
 10
76.349487
 20
66.021438
  0
LWPOLYLINE
  5
241A
100
AcDbEntity
  8
DIM
100
AcDbPolyline
 90
        2
 70
     0
 43
0.03
 10
68.680443
 20
66.021438
 10
76.349487
 20
66.021438
  0
LWPOLYLINE
  5
241E
100
AcDbEntity
  8
DIM
100
AcDbPolyline
 90
        2
 70
     0
 43
0.03
 10
68.680443
 20
66.521438
 10
76.349487
 20
66.521438
  0
LWPOLYLINE
  5
2422
100
AcDbEntity
  8
DIM
100
AcDbPolyline
 90
        2
 70
     0
 43
0.03
 10
68.680443
 20
67.021438
 10
76.349487
 20
67.021438
  0
LWPOLYLINE
  5
2426
100
AcDbEntity
  8
DIM
100
AcDbPolyline
 90
        2
 70
     0
 43
0.03
 10
68.680443
 20
67.521438
 10
76.349487
 20
67.521438
  0
LWPOLYLINE
  5
242A
100
AcDbEntity
  8
DIM
100
AcDbPolyline
 90
        2
 70
     0
 43
0.03
 10
68.680443
 20
68.692785
 10
76.349487
 20
68.692785
  0
LWPOLYLINE
  5
242E
100
AcDbEntity
  8
DIM
100
AcDbPolyline
 90
        2
 70
     0
 43
0.03
 10
68.680443
 20
68.692785
 10
68.680443
 20
66.021438
  0
LWPOLYLINE
  5
2EAE
100
AcDbEntity
  8
BORDER
 62
     5
100
AcDbPolyline
 90
        6
 70
     0
 43
0.122284
 10
68.179611
 20
53.511605
 10
68.179611
 20
82.410415
 42
-0.414214
 10
68.454137
 20
82.684942
 10
92.792296
 20
82.684942
 42
-0.414214
 10
93.066823
 20
82.410415
 10
93.066823
 20
53.511605
  0
LWPOLYLINE
  5
2EAF
100
AcDbEntity
  8
BORDER
 62
     5
100
AcDbPolyline
 90
        2
 70
     0
 43
0.068632
 10
68.179611
 20
53.511605
 10
68.179611
 20
82.410415
  0
LINE
  5
2EB0
100
AcDbEntity
  8
LIMITS
 62
     7
100
AcDbLine
 10
67.630558
 20
83.233994
 30
0.0
 11
67.630558
 21
49.605937
 31
0.0
  0
LWPOLYLINE
  5
2EB1
100
AcDbEntity
  8
BORDER
 62
     5
100
AcDbPolyline
 90
        2
 70
     0
 43
0.068632
 10
93.066823
 20
53.511605
 10
93.066823
 20
82.410415
  0
LINE
  5
2EB2
100
AcDbEntity
  8
LIMITS
 62
     7
100
AcDbLine
 10
93.615875
 20
49.605937
 30
0.0
 11
93.615875
 21
83.233994
 31
0.0
  0
LINE
  5
2EB3
100
AcDbEntity
  8
LIMITS
100
AcDbLine
 10
93.615875
 20
82.5491
 30
0.0
 11
93.615875
 21
49.605937
 31
0.0
  0
LINE
  5
2EB4
100
AcDbEntity
  8
LIMITS
100
AcDbLine
 10
93.615875
 20
49.605937
 30
0.0
 11
93.615875
 21
82.5491
 31
0.0
  0
LWPOLYLINE
  5
2EB5
100
AcDbEntity
  8
BORDER
 62
     5
100
AcDbPolyline
 90
        2
 70
     0
 43
0.171579
 10
88.605769
 20
53.380674
 42
0.414214
 10
87.919453
 20
52.694358
 42
-0.560527
  0
LWPOLYLINE
  5
2EB6
100
AcDbEntity
  8
BORDER
 62
     5
100
AcDbPolyline
 90
        2
 70
     0
 43
0.171579
 10
92.380507
 20
50.292253
 10
68.865927
 20
50.292253
  0
LINE
  5
2EB7
100
AcDbEntity
  8
LIMITS
 62
     7
100
AcDbLine
 10
67.630558
 20
49.605937
 30
0.0
 11
93.615875
 21
49.605937
 31
0.0
  0
LWPOLYLINE
  5
2EB8
100
AcDbEntity
  8
BORDER
 62
     5
100
AcDbPolyline
 90
        2
 70
     0
 43
0.171579
 10
74.356454
 20
53.380674
 10
86.889979
 20
53.380674
  0
TEXT
  5
2EB9
100
AcDbEntity
  8
BORDER
 62
     6
100
AcDbText
 10
75.436141
 20
50.955626
 30
0.0
 40
0.130872
  1
Rochester, IN  46975
  7
ROMANC
100
AcDbText
  0
TEXT
  5
2EBA
100
AcDbEntity
  8
BORDER
 62
     6
100
AcDbText
 10
74.254543
 20
50.692416
 30
0.0
 40
0.130872
  1
Phone: 800/354-4534  Fax: 574/223-6106
  7
ROMANC
100
AcDbText
  0
LINE
  5
2EBB
100
AcDbEntity
  8
BORDER
100
AcDbLine
 10
74.013296
 20
52.245032
 30
0.0
 11
79.243855
 21
52.245032
 31
0.0
  0
LINE
  5
2EBC
100
AcDbEntity
  8
BORDER
100
AcDbLine
 10
74.013296
 20
51.418376
 30
0.0
 11
82.108248
 21
51.418376
 31
0.0
  0
LINE
  5
2EBD
100
AcDbEntity
  8
BORDER
100
AcDbLine
 10
74.013296
 20
51.664884
 30
0.0
 11
82.108248
 21
51.664884
 31
0.0
  0
LINE
  5
2EBE
100
AcDbEntity
  8
BORDER
100
AcDbLine
 10
74.356454
 20
53.037516
 30
0.0
 11
82.108248
 21
53.037516
 31
0.0
  0
LINE
  5
2EBF
100
AcDbEntity
  8
BORDER
100
AcDbLine
 10
74.013296
 20
50.635411
 30
0.0
 11
82.108248
 21
50.635411
 31
0.0
  0
TEXT
  5
2EC0
100
AcDbEntity
  8
BORDER
 62
     6
100
AcDbText
 10
74.87257
 20
51.188042
 30
0.0
 40
0.130872
  1
Highway 25 North P.O. Box 420
  7
ROMANC
100
AcDbText
  0
ARC
  5
2EC1
100
AcDbEntity
  8
BORDER
100
AcDbCircle
 10
71.062446
 20
52.438507
 30
0.0
 40
0.103012
100
AcDbArc
 50
270.0
 51
90.0
  0
LINE
  5
2EC2
100
AcDbEntity
  8
BORDER
100
AcDbLine
 10
71.081181
 20
51.127909
 30
0.0
 11
71.178753
 21
51.127909
 31
0.0
  0
LINE
  5
2EC3
100
AcDbEntity
  8
BORDER
100
AcDbLine
 10
71.178753
 20
51.272627
 30
0.0
 11
71.081181
 21
51.272627
 31
0.0
  0
ELLIPSE
  5
2EC4
102
{ACAD_REACTORS
330
2EC5
102
}
100
AcDbEntity
  8
BORDER
100
AcDbEllipse
 10
70.843114
 20
51.785461
 30
0.0
 11
0.0000000000000026
 21
0.3833051717243356
 31
0.0
210
0.0
220
0.0
230
1.0
 40
0.93822
 41
0.0
 42
6.283185307179586
  0
HATCH
  5
2EC5
100
AcDbEntity
  8
BORDER
100
AcDbHatch
 10
0.0
 20
0.0
 30
0.0
210
0.0
220
0.0
230
1.0
  2
ANSI37
 70
     0
 71
     1
 91
        2
 92
        5
 93
        1
 72
     3
 10
70.843114
 20
51.785461
 11
0.0
 21
0.383305
 40
0.93822
 50
0.0
 51
360.0
 73
     1
 97
        1
330
2EC4
 92
       20
 93
        1
 72
     3
 10
70.843114
 20
51.787645
 11
0.0
 21
0.343992
 40
0.683214
 50
0.0
 51
360.0
 73
     1
 97
        1
330
2EE5
 75
     0
 76
     1
 52
0.0
 41
0.005317
 77
     0
 78
     2
 53
45.0
 43
67.972413
 44
32.216544
 45
-0.000469936116107
 46
0.000469936116107
 79
     0
 53
135.0
 43
67.972413
 44
32.216544
 45
-0.000469936116107
 46
-0.000469936116107
 79
     0
 47
0.027301
 98
        2
 10
70.584463
 20
51.941473
 10
70.584463
 20
51.941473
  0
LINE
  5
2EC6
100
AcDbEntity
  8
BORDER
100
AcDbLine
 10
70.647868
 20
52.240585
 30
0.0
 11
72.406441
 21
52.240585
 31
0.0
  0
LINE
  5
2EC7
100
AcDbEntity
  8
BORDER
100
AcDbLine
 10
69.038229
 20
51.363425
 30
0.0
 11
72.487601
 21
51.363425
 31
0.0
  0
LINE
  5
2EC8
100
AcDbEntity
  8
BORDER
100
AcDbLine
 10
69.038229
 20
51.363425
 30
0.0
 11
72.487601
 21
51.363425
 31
0.0
  0
LWPOLYLINE
  5
2EC9
100
AcDbEntity
  8
BORDER
 62
     5
100
AcDbPolyline
 90
        2
 70
     0
 43
0.171579
 10
68.865927
 20
53.380674
 10
72.640664
 20
53.380674
  0
LINE
  5
2ECA
100
AcDbEntity
  8
BORDER
100
AcDbLine
 10
68.865927
 20
53.037516
 30
0.0
 11
72.640664
 21
53.037516
 31
0.0
  0
LINE
  5
2ECB
100
AcDbEntity
  8
BORDER
100
AcDbLine
 10
68.865927
 20
50.635411
 30
0.0
 11
72.983822
 21
50.635411
 31
0.0
  0
LWPOLYLINE
  5
2ECC
100
AcDbEntity
  8
BORDER
 62
     5
100
AcDbPolyline
 90
        2
 70
     0
 43
0.171579
 10
68.865927
 20
50.292253
 42
-0.414214
 10
68.179611
 20
50.978569
 42
0.560527
  0
LWPOLYLINE
  5
2ECD
100
AcDbEntity
  8
BORDER
 62
     5
100
AcDbPolyline
 90
        2
 70
     0
 43
0.171579
 10
68.865927
 20
53.380674
 42
0.414214
 10
68.179611
 20
52.694358
 42
-0.560527
  0
LWPOLYLINE
  5
2ECE
100
AcDbEntity
  8
BORDER
 62
     5
100
AcDbPolyline
 90
        2
 70
     0
 43
0.171579
 10
68.179611
 20
52.694358
 10
68.179611
 20
50.978569
  0
ARC
  5
2ECF
100
AcDbEntity
  8
BORDER
100
AcDbCircle
 10
68.865927
 20
52.694358
 30
0.0
 40
0.343158
100
AcDbArc
 50
90.0
 51
180.0
  0
LINE
  5
2ED0
102
{ACAD_REACTORS
330
2ED6
102
}
100
AcDbEntity
  8
BORDER
100
AcDbLine
 10
69.603745
 20
52.58662
 30
0.0
 11
69.7579
 21
52.58662
 31
0.0
  0
ARC
  5
2ED1
100
AcDbEntity
  8
BORDER
100
AcDbCircle
 10
69.73452
 20
51.133726
 30
0.0
 40
0.138937
100
AcDbArc
 50
44.321228
 51
180.91508
  0
ARC
  5
2ED2
102
{ACAD_REACTORS
330
2ED6
102
}
100
AcDbEntity
  8
BORDER
100
AcDbCircle
 10
69.58276
 20
51.622713
 30
0.0
 40
0.17514
100
AcDbArc
 50
270.0
 51
0.0
  0
LINE
  5
2ED3
102
{ACAD_REACTORS
330
2ED6
102
}
100
AcDbEntity
  8
BORDER
100
AcDbLine
 10
69.526357
 20
51.411041
 30
0.0
 11
70.292133
 21
51.411041
 31
0.0
  0
ARC
  5
2ED4
100
AcDbEntity
  8
BORDER
100
AcDbCircle
 10
69.724487
 20
51.119636
 30
0.0
 40
0.129432
100
AcDbArc
 50
174.737783
 51
327.723969
  0
LINE
  5
2ED5
102
{ACAD_REACTORS
330
2ED6
102
}
100
AcDbEntity
  8
BORDER
100
AcDbLine
 10
69.217632
 20
52.67592
 30
0.0
 11
70.600858
 21
52.67592
 31
0.0
  0
HATCH
  5
2ED6
100
AcDbEntity
  8
BORDER
100
AcDbHatch
 10
0.0
 20
0.0
 30
0.0
210
0.0
220
0.0
230
1.0
  2
ANSI37
 70
     0
 71
     1
 91
        1
 92
        7
 72
     1
 73
     1
 93
       18
 10
69.75790030299716
 20
51.62271321236135
 42
-0.4142135623730477
 10
69.58275988251813
 20
51.44757279188235
 42
0.0
 10
69.52635656356301
 20
51.44757279188235
 42
0.0
 10
69.52635656356301
 20
51.4110407672597
 42
0.0
 10
70.29213325165812
 20
51.41104076725971
 42
0.0
 10
70.29213325165812
 20
51.44757279188235
 42
0.0
 10
70.23572993270291
 20
51.44757279188235
 42
-0.4142135623730357
 10
70.06058951222391
 20
51.62271321236137
 42
0.0
 10
70.06058951222391
 20
52.5866195782619
 42
0.0
 10
70.21474522877333
 20
52.5866195782619
 42
-0.4138200196737597
 10
70.56429842678018
 20
52.23753580350216
 42
0.0
 10
70.60085823757039
 20
52.23753580350217
 42
0.0
 10
70.60085823757049
 20
52.67592009897313
 42
0.0
 10
69.21763157765065
 20
52.67592009897313
 42
0.0
 10
69.21763157765067
 20
52.23753580350216
 42
0.0
 10
69.25419138844095
 20
52.23753580350216
 42
-0.4138200196737598
 10
69.60374458644778
 20
52.5866195782619
 42
0.0
 10
69.75790030299716
 20
52.5866195782619
 42
0.0
 97
       18
330
2EF7
330
2EF4
330
2EFB
330
2EFF
330
2ED5
330
2EE3
330
2EE2
330
2EE1
330
2ED0
330
2EF5
330
2ED2
330
2EDF
330
2EDE
330
2ED3
330
2EEB
330
2EE7
330
2EE4
330
2EF6
 75
     0
 76
     1
 52
0.0
 41
0.005317
 77
     0
 78
     2
 53
45.0
 43
67.972413
 44
32.216544
 45
-0.000469936116107
 46
0.000469936116107
 79
     0
 53
135.0
 43
67.972413
 44
32.216544
 45
-0.000469936116107
 46
-0.000469936116107
 79
     0
 47
0.049862
 98
        1
 10
69.872099
 20
52.085967
  0
LINE
  5
2ED7
100
AcDbEntity
  8
BORDER
100
AcDbLine
 10
68.522769
 20
50.978569
 30
0.0
 11
68.522769
 21
52.694358
 31
0.0
  0
ARC
  5
2ED8
100
AcDbEntity
  8
BORDER
100
AcDbCircle
 10
68.865927
 20
50.978569
 30
0.0
 40
0.343158
100
AcDbArc
 50
180.0
 51
270.0
  0
LINE
  5
2ED9
100
AcDbEntity
  8
BORDER
100
AcDbLine
 10
69.529401
 20
50.990387
 30
0.0
 11
69.313147
 21
51.272627
 31
0.0
  0
LINE
  5
2EDA
100
AcDbEntity
  8
BORDER
100
AcDbLine
 10
69.131781
 20
51.272627
 30
0.0
 11
69.247367
 21
51.272627
 31
0.0
  0
LINE
  5
2EDB
100
AcDbEntity
  8
BORDER
100
AcDbLine
 10
69.131781
 20
50.990387
 30
0.0
 11
69.247367
 21
50.990387
 31
0.0
  0
LINE
  5
2EDC
100
AcDbEntity
  8
BORDER
100
AcDbLine
 10
69.189574
 20
51.272627
 30
0.0
 11
69.189574
 21
50.990387
 31
0.0
  0
LINE
  5
2EDD
100
AcDbEntity
  8
BORDER
100
AcDbLine
 10
69.313147
 20
51.272627
 30
0.0
 11
69.313147
 21
50.990387
 31
0.0
  0
LINE
  5
2EDE
102
{ACAD_REACTORS
330
2ED6
102
}
100
AcDbEntity
  8
BORDER
100
AcDbLine
 10
69.526357
 20
51.447573
 30
0.0
 11
69.526357
 21
51.411041
 31
0.0
  0
LINE
  5
2EDF
102
{ACAD_REACTORS
330
2ED6
102
}
100
AcDbEntity
  8
BORDER
100
AcDbLine
 10
69.526357
 20
51.447573
 30
0.0
 11
69.58276
 21
51.447573
 31
0.0
  0
LINE
  5
2EE0
100
AcDbEntity
  8
BORDER
100
AcDbLine
 10
69.529401
 20
51.272627
 30
0.0
 11
69.529401
 21
50.990387
 31
0.0
  0
ARC
  5
2EE1
102
{ACAD_REACTORS
330
2ED6
102
}
100
AcDbEntity
  8
BORDER
100
AcDbCircle
 10
69.603745
 20
52.237066
 30
0.0
 40
0.349554
100
AcDbArc
 50
90.0
 51
179.923004
  0
LINE
  5
2EE2
102
{ACAD_REACTORS
330
2ED6
102
}
100
AcDbEntity
  8
BORDER
100
AcDbLine
 10
69.217632
 20
52.237536
 30
0.0
 11
69.254191
 21
52.237536
 31
0.0
  0
LINE
  5
2EE3
102
{ACAD_REACTORS
330
2ED6
102
}
100
AcDbEntity
  8
BORDER
100
AcDbLine
 10
69.217632
 20
52.237536
 30
0.0
 11
69.217632
 21
52.67592
 31
0.0
  0
ARC
  5
2EE4
102
{ACAD_REACTORS
330
2ED6
102
}
100
AcDbEntity
  8
BORDER
100
AcDbCircle
 10
70.23573
 20
51.622713
 30
0.0
 40
0.17514
100
AcDbArc
 50
180.0
 51
270.0
  0
ELLIPSE
  5
2EE5
102
{ACAD_REACTORS
330
2EC5
102
}
100
AcDbEntity
  8
BORDER
100
AcDbEllipse
 10
70.843114
 20
51.787645
 30
0.0
 11
0.0000000000000026
 21
0.3439918346920643
 31
0.0
210
0.0
220
0.0
230
1.0
 40
0.683214
 41
0.0
 42
6.283185307179586
  0
SPLINE
  5
2EE6
100
AcDbEntity
  8
BORDER
100
AcDbSpline
210
0.0
220
0.0
230
1.0
 70
    11
 71
     3
 72
    24
 73
    20
 74
     0
 42
0.0000001
 43
0.0000001
 40
0.0
 40
0.0
 40
0.0
 40
0.0
 40
0.474866629778075
 40
0.474866629778075
 40
1.277791044886493
 40
1.277791044886493
 40
2.080715459994911
 40
2.080715459994911
 40
2.883639875103329
 40
2.883639875103329
 40
3.686564290211747
 40
3.686564290211747
 40
4.489488705320165
 40
4.489488705320165
 40
5.292413120428583
 40
5.292413120428583
 40
6.095337535537001
 40
6.095337535537001
 40
6.283185307179586
 40
6.283185307179586
 40
6.283185307179586
 40
6.283185307179586
 10
70.01900097496907
 20
51.27645537854191
 30
0.0
 10
69.99612593480923
 20
51.27645537854191
 30
0.0
 10
69.97327016340708
 20
51.27090665339596
 30
0.0
 10
69.91853056125986
 20
51.24267564041518
 30
0.0
 10
69.89182513792255
 20
51.21050787562515
 30
0.0
 10
69.86948744885983
 20
51.13623101004147
 30
0.0
 10
69.87400368682921
 20
51.09461955221529
 30
0.0
 10
69.91175450697766
 20
51.02690333379328
 30
0.0
 10
69.94473752464926
 20
51.0012533390619
 30
0.0
 10
70.0195330620858
 20
50.98145744194557
 30
0.0
 10
70.06084170877291
 20
50.98744594680376
 30
0.0
 10
70.12698771616076
 20
51.02767126700833
 30
0.0
 10
70.15138090690903
 20
51.06163585074316
 30
0.0
 10
70.16847710160256
 20
51.13729927486912
 30
0.0
 10
70.16106650741305
 20
51.17849144960262
 30
0.0
 10
70.11867938565831
 20
51.24338960644305
 30
0.0
 10
70.08398558702542
 20
51.26665933033994
 30
0.0
 10
70.03709860623708
 20
51.27560027409067
 30
0.0
 10
70.02804988481196
 20
51.27645537854191
 30
0.0
 10
70.01900097496907
 20
51.27645537854191
 30
0.0
  0
LINE
  5
2EE7
102
{ACAD_REACTORS
330
2ED6
102
}
100
AcDbEntity
  8
BORDER
100
AcDbLine
 10
70.292133
 20
51.447573
 30
0.0
 11
70.23573
 21
51.447573
 31
0.0
  0
LINE
  5
2EE8
100
AcDbEntity
  8
BORDER
100
AcDbLine
 10
70.327739
 20
51.272627
 30
0.0
 11
70.230168
 21
51.272627
 31
0.0
  0
LINE
  5
2EE9
100
AcDbEntity
  8
BORDER
100
AcDbLine
 10
70.230168
 20
51.127909
 30
0.0
 11
70.327739
 21
51.127909
 31
0.0
  0
ARC
  5
2EEA
100
AcDbEntity
  8
BORDER
100
AcDbCircle
 10
70.327739
 20
51.200268
 30
0.0
 40
0.072359
100
AcDbArc
 50
270.0
 51
90.0
  0
LINE
  5
2EEB
102
{ACAD_REACTORS
330
2ED6
102
}
100
AcDbEntity
  8
BORDER
100
AcDbLine
 10
70.292133
 20
51.447573
 30
0.0
 11
70.292133
 21
51.411041
 31
0.0
  0
LINE
  5
2EEC
100
AcDbEntity
  8
BORDER
100
AcDbLine
 10
70.230168
 20
51.272627
 30
0.0
 11
70.230168
 21
50.990387
 31
0.0
  0
LINE
  5
2EED
100
AcDbEntity
  8
BORDER
100
AcDbLine
 10
70.30742
 20
51.127909
 30
0.0
 11
70.419469
 21
50.990387
 31
0.0
  0
SPLINE
  5
2EEE
100
AcDbEntity
  8
BORDER
100
AcDbSpline
210
0.0
220
0.0
230
1.0
 70
    11
 71
     3
 72
    24
 73
    20
 74
     0
 42
0.0000001
 43
0.0000001
 40
0.0
 40
0.0
 40
0.0
 40
0.0
 40
0.474866629778075
 40
0.474866629778075
 40
1.277791044886493
 40
1.277791044886493
 40
2.080715459994911
 40
2.080715459994911
 40
2.883639875103329
 40
2.883639875103329
 40
3.686564290211747
 40
3.686564290211747
 40
4.489488705320165
 40
4.489488705320165
 40
5.292413120428583
 40
5.292413120428583
 40
6.095337535537001
 40
6.095337535537001
 40
6.283185307179586
 40
6.283185307179586
 40
6.283185307179586
 40
6.283185307179586
 10
70.8587937176095
 20
51.27645537854191
 30
0.0
 10
70.83591867744958
 20
51.27645537854191
 30
0.0
 10
70.81306290604745
 20
51.27090665339596
 30
0.0
 10
70.75832330390023
 20
51.24267564041518
 30
0.0
 10
70.731617880563
 20
51.21050787562515
 30
0.0
 10
70.70928019150028
 20
51.13623101004147
 30
0.0
 10
70.71379642946965
 20
51.09461955221529
 30
0.0
 10
70.75154724961802
 20
51.02690333379328
 30
0.0
 10
70.78453026728964
 20
51.0012533390619
 30
0.0
 10
70.85932580472621
 20
50.98145744194557
 30
0.0
 10
70.90063445141328
 20
50.98744594680376
 30
0.0
 10
70.96678045880112
 20
51.02767126700833
 30
0.0
 10
70.99117364954939
 20
51.06163585074316
 30
0.0
 10
71.00826984424305
 20
51.13729927486912
 30
0.0
 10
71.00085925005351
 20
51.17849144960262
 30
0.0
 10
70.95847212829877
 20
51.24338960644305
 30
0.0
 10
70.9237783296658
 20
51.26665933033994
 30
0.0
 10
70.87689134887745
 20
51.27560027409067
 30
0.0
 10
70.86784262745242
 20
51.27645537854191
 30
0.0
 10
70.8587937176095
 20
51.27645537854191
 30
0.0
  0
ARC
  5
2EEF
100
AcDbEntity
  8
BORDER
100
AcDbCircle
 10
70.601573
 20
51.200268
 30
0.0
 40
0.072359
100
AcDbArc
 50
270.0
 51
90.0
  0
LINE
  5
2EF0
100
AcDbEntity
  8
BORDER
100
AcDbLine
 10
70.528319
 20
51.272627
 30
0.0
 11
70.528319
 21
50.990387
 31
0.0
  0
LINE
  5
2EF1
100
AcDbEntity
  8
BORDER
100
AcDbLine
 10
70.601573
 20
51.272627
 30
0.0
 11
70.528319
 21
51.272627
 31
0.0
  0
LINE
  5
2EF2
100
AcDbEntity
  8
BORDER
100
AcDbLine
 10
70.528319
 20
51.127909
 30
0.0
 11
70.601573
 21
51.127909
 31
0.0
  0
LINE
  5
2EF3
100
AcDbEntity
  8
BORDER
100
AcDbLine
 10
71.081181
 20
51.272627
 30
0.0
 11
71.081181
 21
50.990387
 31
0.0
  0
ARC
  5
2EF4
102
{ACAD_REACTORS
330
2ED6
102
}
100
AcDbEntity
  8
BORDER
100
AcDbCircle
 10
70.214745
 20
52.237066
 30
0.0
 40
0.349554
100
AcDbArc
 50
0.076996
 51
90.0
  0
LINE
  5
2EF5
102
{ACAD_REACTORS
330
2ED6
102
}
100
AcDbEntity
  8
BORDER
100
AcDbLine
 10
69.7579
 20
51.622713
 30
0.0
 11
69.7579
 21
52.58662
 31
0.0
  0
LINE
  5
2EF6
102
{ACAD_REACTORS
330
2ED6
102
}
100
AcDbEntity
  8
BORDER
100
AcDbLine
 10
70.06059
 20
51.622713
 30
0.0
 11
70.06059
 21
52.58662
 31
0.0
  0
LINE
  5
2EF7
102
{ACAD_REACTORS
330
2ED6
102
}
100
AcDbEntity
  8
BORDER
100
AcDbLine
 10
70.214745
 20
52.58662
 30
0.0
 11
70.06059
 21
52.58662
 31
0.0
  0
LINE
  5
2EF8
100
AcDbEntity
  8
BORDER
100
AcDbLine
 10
70.931034
 20
52.335495
 30
0.0
 11
70.789816
 21
52.545827
 31
0.0
  0
LINE
  5
2EF9
100
AcDbEntity
  8
BORDER
100
AcDbLine
 10
70.664895
 20
52.541519
 30
0.0
 11
70.696611
 21
52.541519
 31
0.0
  0
LINE
  5
2EFA
100
AcDbEntity
  8
BORDER
100
AcDbLine
 10
70.696611
 20
52.541519
 30
0.0
 11
70.728327
 21
52.541519
 31
0.0
  0
LINE
  5
2EFB
102
{ACAD_REACTORS
330
2ED6
102
}
100
AcDbEntity
  8
BORDER
100
AcDbLine
 10
70.600858
 20
52.237536
 30
0.0
 11
70.564299
 21
52.237536
 31
0.0
  0
LINE
  5
2EFC
100
AcDbEntity
  8
BORDER
100
AcDbLine
 10
70.664895
 20
52.335495
 30
0.0
 11
70.728327
 21
52.335495
 31
0.0
  0
LINE
  5
2EFD
100
AcDbEntity
  8
BORDER
100
AcDbLine
 10
70.696611
 20
52.541519
 30
0.0
 11
70.696611
 21
52.335495
 31
0.0
  0
LINE
  5
2EFE
100
AcDbEntity
  8
BORDER
100
AcDbLine
 10
70.789816
 20
52.545827
 30
0.0
 11
70.789816
 21
52.335495
 31
0.0
  0
LINE
  5
2EFF
102
{ACAD_REACTORS
330
2ED6
102
}
100
AcDbEntity
  8
BORDER
100
AcDbLine
 10
70.600858
 20
52.237536
 30
0.0
 11
70.600858
 21
52.67592
 31
0.0
  0
LINE
  5
2F00
100
AcDbEntity
  8
BORDER
100
AcDbLine
 10
71.062446
 20
52.541519
 30
0.0
 11
71.01859
 21
52.541519
 31
0.0
  0
LINE
  5
2F01
100
AcDbEntity
  8
BORDER
100
AcDbLine
 10
71.01859
 20
52.335495
 30
0.0
 11
71.062446
 21
52.335495
 31
0.0
  0
LINE
  5
2F02
100
AcDbEntity
  8
BORDER
100
AcDbLine
 10
70.931034
 20
52.541519
 30
0.0
 11
70.931034
 21
52.335495
 31
0.0
  0
LINE
  5
2F03
100
AcDbEntity
  8
BORDER
100
AcDbLine
 10
71.01859
 20
52.541519
 30
0.0
 11
71.01859
 21
52.335495
 31
0.0
  0
ARC
  5
2F04
100
AcDbEntity
  8
BORDER
100
AcDbCircle
 10
74.356454
 20
52.694358
 30
0.0
 40
0.343158
100
AcDbArc
 50
90.0
 51
180.0
  0
LWPOLYLINE
  5
2F05
100
AcDbEntity
  8
BORDER
 62
     5
100
AcDbPolyline
 90
        2
 70
     0
 43
0.171579
 10
74.356454
 20
53.380674
 42
0.414214
 10
73.670138
 20
52.694358
 42
-0.560527
  0
ARC
  5
2F06
100
AcDbEntity
  8
BORDER
100
AcDbCircle
 10
72.640664
 20
52.694358
 30
0.0
 40
0.343158
100
AcDbArc
 50
0.0
 51
90.0
  0
LWPOLYLINE
  5
2F07
100
AcDbEntity
  8
BORDER
 62
     5
100
AcDbPolyline
 90
        2
 70
     0
 43
0.171579
 10
72.640664
 20
53.380674
 42
-0.414214
 10
73.32698
 20
52.694358
 42
0.560527
  0
ARC
  5
2F08
102
{ACAD_REACTORS
330
2F0A
102
}
100
AcDbEntity
  8
BORDER
100
AcDbCircle
 10
72.160316
 20
51.50821
 30
0.0
 40
0.072296
100
AcDbArc
 50
180.0
 51
270.0
  0
ARC
  5
2F09
102
{ACAD_REACTORS
330
2F0A
102
}
100
AcDbEntity
  8
BORDER
100
AcDbCircle
 10
71.913438
 20
51.50821
 30
0.0
 40
0.072296
100
AcDbArc
 50
270.0
 51
360.0
  0
HATCH
  5
2F0A
100
AcDbEntity
  8
BORDER
100
AcDbHatch
 10
0.0
 20
0.0
 30
0.0
210
0.0
220
0.0
230
1.0
  2
ANSI37
 70
     0
 71
     1
 91
        2
 92
        7
 72
     1
 73
     1
 93
       16
 10
71.98573459487746
 20
51.50820999453941
 42
-0.4142135623729501
 10
71.91343825851692
 20
51.43591365817894
 42
0.0
 10
71.87998168391242
 20
51.43591365817894
 42
0.0
 10
71.87998168391242
 20
51.4168577810711
 42
0.0
 10
72.19377303236021
 20
51.4168577810711
 42
0.0
 10
72.19377303236021
 20
51.43591365817894
 42
0.0
 10
72.16031645775583
 20
51.43591365817894
 42
-0.4142135623735845
 10
72.08802012139518
 20
51.50820999453945
 42
0.0
 10
72.08802012139518
 20
51.76159516507119
 42
0.0609117558028173
 10
72.21457687610943
 20
51.74600407182131
 42
0.4291497434352158
 10
72.43821819640249
 20
51.94695654330689
 42
0.3916311771503265
 10
72.21927612674746
 20
52.15196910940922
 42
0.0
 10
71.88052528553956
 20
52.15196910940922
 42
0.0
 10
71.88052528553955
 20
52.13179083854942
 42
0.0
 10
71.91343825851695
 20
52.13179083854942
 42
-0.4142135623730377
 10
71.98573459487746
 20
52.0594945021889
 42
0.0
 97
       16
330
2F2F
330
2F33
330
2F36
330
2F37
330
2F35
330
2F39
330
2F09
330
2F18
330
2F17
330
2F1C
330
2F16
330
2F1B
330
2F08
330
2F38
330
2F32
330
2F3A
 92
       22
 72
     1
 73
     1
 93
        3
 10
72.08802012139518
 20
52.09767084030847
 42
-0.5287425889425175
 10
72.31512871040265
 20
51.93829480072011
 42
-0.5439228899266407
 10
72.08802012139518
 20
51.78931278476844
 42
0.0
 97
        3
330
2F30
330
2F31
330
2F34
 75
     0
 76
     1
 52
0.0
 41
0.005317
 77
     0
 78
     2
 53
45.0
 43
67.972413
 44
32.216544
 45
-0.000469936116107
 46
0.000469936116107
 79
     0
 53
135.0
 43
67.972413
 44
32.216544
 45
-0.000469936116107
 46
-0.000469936116107
 79
     0
 47
0.027301
 98
        2
 10
72.028352
 20
51.903733
 10
72.028352
 20
51.903733
  0
LWPOLYLINE
  5
2F0B
102
{ACAD_REACTORS
330
2F0C
102
}
100
AcDbEntity
  8
BORDER
100
AcDbPolyline
 90
       17
 70
     0
 43
0.0
 10
71.597332
 20
51.748789
 42
-0.060912
 10
71.470775
 20
51.76438
 10
71.470775
 20
51.510995
 42
0.414214
 10
71.543072
 20
51.438699
 10
71.576528
 20
51.438699
 10
71.576528
 20
51.419643
 10
71.262737
 20
51.419643
 10
71.262737
 20
51.438699
 10
71.296193
 20
51.438699
 42
0.414214
 10
71.36849
 20
51.510995
 10
71.36849
 20
52.062279
 42
0.414214
 10
71.296193
 20
52.134576
 10
71.26328
 20
52.134576
 10
71.26328
 20
52.154754
 10
71.599376
 20
52.154754
 42
-0.395102
 10
71.820973
 20
51.949741
 42
-0.42915
 10
71.597332
 20
51.748789
  0
HATCH
  5
2F0C
100
AcDbEntity
  8
BORDER
100
AcDbHatch
 10
0.0
 20
0.0
 30
0.0
210
0.0
220
0.0
230
1.0
  2
ANSI37
 70
     0
 71
     1
 91
        2
 92
        7
 72
     1
 73
     1
 93
       16
 10
71.36848970333453
 20
51.51099488836416
 42
-0.414213562373094
 10
71.29619336697402
 20
51.43869855200366
 42
0.0
 10
71.26273679236951
 20
51.43869855200367
 42
0.0
 10
71.26273679236949
 20
51.41964267489568
 42
0.0
 10
71.57652814081732
 20
51.41964267489568
 42
0.0
 10
71.57652814081735
 20
51.43869855200366
 42
0.0
 10
71.54307156621282
 20
51.43869855200366
 42
-0.4142135623730377
 10
71.47077522985234
 20
51.51099488836415
 42
0.0
 10
71.47077522985234
 20
51.7643800588958
 42
0.0609117558023829
 10
71.5973319845657
 20
51.74878896564592
 42
0.4291497434370802
 10
71.82097330485953
 20
51.949741437132
 42
0.3916311771392551
 10
71.60203123521265
 20
52.15475400323381
 42
0.0
 10
71.26328039399663
 20
52.15475400323381
 42
0.0
 10
71.26328039399663
 20
52.13457573237416
 42
0.0
 10
71.29619336697404
 20
52.13457573237416
 42
-0.4142135623730662
 10
71.36848970333453
 20
52.06227939601365
 42
0.0
 97
        1
330
2F0B
 92
       22
 72
     1
 73
     1
 93
        3
 10
71.47077522985234
 20
52.10045573413303
 42
-0.5287425889464079
 10
71.69788381885974
 20
51.9410796945426
 42
-0.5439228899220561
 10
71.47077522985234
 20
51.79209767859313
 42
0.0
 97
        1
330
2F23
 75
     0
 76
     1
 52
0.0
 41
0.005317
 77
     0
 78
     2
 53
45.0
 43
67.972413
 44
32.216544
 45
-0.000469936116107
 46
0.000469936116107
 79
     0
 53
135.0
 43
67.972413
 44
32.216544
 45
-0.000469936116107
 46
-0.000469936116107
 79
     0
 47
0.027301
 98
        2
 10
71.409542
 20
51.9676
 10
71.409542
 20
51.9676
  0
LINE
  5
2F0D
100
AcDbEntity
  8
BORDER
100
AcDbLine
 10
71.625384
 20
51.272627
 30
0.0
 11
71.864542
 21
51.272627
 31
0.0
  0
LINE
  5
2F0E
100
AcDbEntity
  8
BORDER
100
AcDbLine
 10
71.387364
 20
51.093299
 30
0.0
 11
71.52717
 21
51.093299
 31
0.0
  0
LINE
  5
2F0F
100
AcDbEntity
  8
BORDER
100
AcDbLine
 10
71.567985
 20
50.990387
 30
0.0
 11
71.456049
 21
51.272627
 31
0.0
  0
ARC
  5
2F10
100
AcDbEntity
  8
BORDER
100
AcDbCircle
 10
71.178753
 20
51.200268
 30
0.0
 40
0.072359
100
AcDbArc
 50
270.0
 51
90.0
  0
LINE
  5
2F11
100
AcDbEntity
  8
BORDER
100
AcDbLine
 10
71.456049
 20
51.272627
 30
0.0
 11
71.347947
 21
50.990387
 31
0.0
  0
LINE
  5
2F12
100
AcDbEntity
  8
BORDER
100
AcDbLine
 10
71.158433
 20
51.127909
 30
0.0
 11
71.270482
 21
50.990387
 31
0.0
  0
LINE
  5
2F13
100
AcDbEntity
  8
BORDER
100
AcDbLine
 10
71.744963
 20
51.272627
 30
0.0
 11
71.744963
 21
50.990387
 31
0.0
  0
LINE
  5
2F14
100
AcDbEntity
  8
BORDER
100
AcDbLine
 10
72.294202
 20
51.272627
 30
0.0
 11
72.187681
 21
51.272627
 31
0.0
  0
LINE
  5
2F15
100
AcDbEntity
  8
BORDER
100
AcDbLine
 10
72.187681
 20
50.990387
 30
0.0
 11
72.294202
 21
50.990387
 31
0.0
  0
LINE
  5
2F16
102
{ACAD_REACTORS
330
2F0A
102
}
100
AcDbEntity
  8
BORDER
100
AcDbLine
 10
72.193773
 20
51.435914
 30
0.0
 11
72.193773
 21
51.416858
 31
0.0
  0
LINE
  5
2F17
102
{ACAD_REACTORS
330
2F0A
102
}
100
AcDbEntity
  8
BORDER
100
AcDbLine
 10
71.879982
 20
51.435914
 30
0.0
 11
71.879982
 21
51.416858
 31
0.0
  0
LINE
  5
2F18
102
{ACAD_REACTORS
330
2F0A
102
}
100
AcDbEntity
  8
BORDER
100
AcDbLine
 10
71.879982
 20
51.435914
 30
0.0
 11
71.913438
 21
51.435914
 31
0.0
  0
LINE
  5
2F19
100
AcDbEntity
  8
BORDER
100
AcDbLine
 10
71.92693
 20
51.272627
 30
0.0
 11
72.109024
 21
51.272627
 31
0.0
  0
LINE
  5
2F1A
100
AcDbEntity
  8
BORDER
100
AcDbLine
 10
71.92693
 20
51.131507
 30
0.0
 11
72.048024
 21
51.131507
 31
0.0
  0
LINE
  5
2F1B
102
{ACAD_REACTORS
330
2F0A
102
}
100
AcDbEntity
  8
BORDER
100
AcDbLine
 10
72.160316
 20
51.435914
 30
0.0
 11
72.193773
 21
51.435914
 31
0.0
  0
LINE
  5
2F1C
102
{ACAD_REACTORS
330
2F0A
102
}
100
AcDbEntity
  8
BORDER
100
AcDbLine
 10
71.879982
 20
51.416858
 30
0.0
 11
72.193773
 21
51.416858
 31
0.0
  0
LINE
  5
2F1D
100
AcDbEntity
  8
BORDER
100
AcDbLine
 10
72.109024
 20
50.990387
 30
0.0
 11
71.92693
 21
50.990387
 31
0.0
  0
LINE
  5
2F1E
100
AcDbEntity
  8
BORDER
100
AcDbLine
 10
72.187681
 20
51.272627
 30
0.0
 11
72.187681
 21
50.990387
 31
0.0
  0
LINE
  5
2F1F
100
AcDbEntity
  8
BORDER
100
AcDbLine
 10
71.92693
 20
50.990387
 30
0.0
 11
71.92693
 21
51.272627
 31
0.0
  0
ARC
  5
2F20
100
AcDbEntity
  8
BORDER
100
AcDbCircle
 10
72.294202
 20
51.131507
 30
0.0
 40
0.14112
100
AcDbArc
 50
270.0
 51
90.0
  0
LINE
  5
2F21
100
AcDbEntity
  8
BORDER
100
AcDbLine
 10
71.888989
 20
52.541519
 30
0.0
 11
71.81405
 21
52.541519
 31
0.0
  0
LINE
  5
2F22
100
AcDbEntity
  8
BORDER
100
AcDbLine
 10
71.81405
 20
52.437514
 30
0.0
 11
71.888989
 21
52.437514
 31
0.0
  0
LWPOLYLINE
  5
2F23
102
{ACAD_REACTORS
330
2F0C
102
}
100
AcDbEntity
  8
BORDER
100
AcDbPolyline
 90
        3
 70
     1
 43
0.0
 10
71.470775
 20
51.792098
 42
0.543923
 10
71.697884
 20
51.94108
 42
0.528743
 10
71.470775
 20
52.100456
  0
ARC
  5
2F24
100
AcDbEntity
  8
BORDER
100
AcDbCircle
 10
72.406163
 20
53.907635
 30
0.0
 40
1.722307
100
AcDbArc
 50
236.383068
 51
240.315223
  0
ARC
  5
2F25
100
AcDbEntity
  8
BORDER
100
AcDbCircle
 10
71.497485
 20
52.477843
 30
0.0
 40
0.063905
100
AcDbArc
 50
25.379638
 51
143.047804
  0
ARC
  5
2F26
100
AcDbEntity
  8
BORDER
100
AcDbCircle
 10
71.505779
 20
52.400828
 30
0.0
 40
0.06523
100
AcDbArc
 50
200.502447
 51
334.026213
  0
LINE
  5
2F27
100
AcDbEntity
  8
BORDER
100
AcDbLine
 10
71.377286
 20
52.541519
 30
0.0
 11
71.377286
 21
52.404692
 31
0.0
  0
LINE
  5
2F28
100
AcDbEntity
  8
BORDER
100
AcDbLine
 10
71.238892
 20
52.404692
 30
0.0
 11
71.238892
 21
52.541519
 31
0.0
  0
ARC
  5
2F29
100
AcDbEntity
  8
BORDER
100
AcDbCircle
 10
71.468736
 20
52.497598
 30
0.0
 40
0.029093
100
AcDbArc
 50
140.101426
 51
236.383068
  0
ARC
  5
2F2A
100
AcDbEntity
  8
BORDER
100
AcDbCircle
 10
71.308089
 20
52.404692
 30
0.0
 40
0.069197
100
AcDbArc
 50
180.0
 51
0.0
  0
LINE
  5
2F2B
100
AcDbEntity
  8
BORDER
100
AcDbLine
 10
71.81405
 20
52.541519
 30
0.0
 11
71.81405
 21
52.335495
 31
0.0
  0
LINE
  5
2F2C
100
AcDbEntity
  8
BORDER
100
AcDbLine
 10
71.685677
 20
52.541519
 30
0.0
 11
71.685677
 21
52.335495
 31
0.0
  0
ARC
  5
2F2D
100
AcDbEntity
  8
BORDER
100
AcDbCircle
 10
71.538821
 20
52.386083
 30
0.0
 40
0.029093
100
AcDbArc
 50
331.630608
 51
60.315223
  0
LINE
  5
2F2E
100
AcDbEntity
  8
BORDER
100
AcDbLine
 10
71.601036
 20
52.541519
 30
0.0
 11
71.770319
 21
52.541519
 31
0.0
  0
ARC
  5
2F2F
102
{ACAD_REACTORS
330
2F0A
102
}
100
AcDbEntity
  8
BORDER
100
AcDbCircle
 10
72.217949
 20
51.931136
 30
0.0
 40
0.220837
100
AcDbArc
 50
4.10812
 51
90.34444
  0
ARC
  5
2F30
102
{ACAD_REACTORS
330
2F0A
102
}
100
AcDbEntity
  8
BORDER
100
AcDbCircle
 10
72.147285
 20
51.940622
 30
0.0
 40
0.167859
100
AcDbArc
 50
359.205673
 51
110.674935
  0
ARC
  5
2F31
102
{ACAD_REACTORS
330
2F0A
102
}
100
AcDbEntity
  8
BORDER
100
AcDbCircle
 10
72.153357
 20
51.937306
 30
0.0
 40
0.161774
100
AcDbArc
 50
246.179097
 51
0.350223
  0
ARC
  5
2F32
102
{ACAD_REACTORS
330
2F0A
102
}
100
AcDbEntity
  8
BORDER
100
AcDbCircle
 10
72.215052
 20
52.271299
 30
0.0
 40
0.525295
100
AcDbArc
 50
256.005504
 51
269.948223
  0
LINE
  5
2F33
102
{ACAD_REACTORS
330
2F0A
102
}
100
AcDbEntity
  8
BORDER
100
AcDbLine
 10
71.880525
 20
52.151969
 30
0.0
 11
72.219276
 21
52.151969
 31
0.0
  0
LINE
  5
2F34
102
{ACAD_REACTORS
330
2F0A
102
}
100
AcDbEntity
  8
BORDER
100
AcDbLine
 10
72.08802
 20
52.097671
 30
0.0
 11
72.08802
 21
51.789313
 31
0.0
  0
ARC
  5
2F35
102
{ACAD_REACTORS
330
2F0A
102
}
100
AcDbEntity
  8
BORDER
100
AcDbCircle
 10
71.913438
 20
52.059495
 30
0.0
 40
0.072296
100
AcDbArc
 50
0.0
 51
90.0
  0
LINE
  5
2F36
102
{ACAD_REACTORS
330
2F0A
102
}
100
AcDbEntity
  8
BORDER
100
AcDbLine
 10
71.880525
 20
52.151969
 30
0.0
 11
71.880525
 21
52.131791
 31
0.0
  0
LINE
  5
2F37
102
{ACAD_REACTORS
330
2F0A
102
}
100
AcDbEntity
  8
BORDER
100
AcDbLine
 10
71.880525
 20
52.131791
 30
0.0
 11
71.913438
 21
52.131791
 31
0.0
  0
LINE
  5
2F38
102
{ACAD_REACTORS
330
2F0A
102
}
100
AcDbEntity
  8
BORDER
100
AcDbLine
 10
72.08802
 20
51.761595
 30
0.0
 11
72.08802
 21
51.50821
 31
0.0
  0
LINE
  5
2F39
102
{ACAD_REACTORS
330
2F0A
102
}
100
AcDbEntity
  8
BORDER
100
AcDbLine
 10
71.985735
 20
51.50821
 30
0.0
 11
71.985735
 21
52.059495
 31
0.0
  0
ARC
  5
2F3A
102
{ACAD_REACTORS
330
2F0A
102
}
100
AcDbEntity
  8
BORDER
100
AcDbCircle
 10
72.230893
 20
51.952768
 30
0.0
 40
0.207407
100
AcDbArc
 50
265.488062
 51
358.394374
  0
LINE
  5
2F3B
100
AcDbEntity
  8
BORDER
100
AcDbLine
 10
72.131546
 20
52.541519
 30
0.0
 11
72.255561
 21
52.541519
 31
0.0
  0
LINE
  5
2F3C
100
AcDbEntity
  8
BORDER
100
AcDbLine
 10
72.131546
 20
52.438507
 30
0.0
 11
72.22852
 21
52.438507
 31
0.0
  0
LINE
  5
2F3D
100
AcDbEntity
  8
BORDER
100
AcDbLine
 10
72.255561
 20
52.335495
 30
0.0
 11
72.131546
 21
52.335495
 31
0.0
  0
ARC
  5
2F3E
100
AcDbEntity
  8
BORDER
100
AcDbCircle
 10
71.888989
 20
52.489517
 30
0.0
 40
0.052003
100
AcDbArc
 50
270.0
 51
90.0
  0
LINE
  5
2F3F
100
AcDbEntity
  8
BORDER
100
AcDbLine
 10
72.004344
 20
52.541519
 30
0.0
 11
72.067777
 21
52.541519
 31
0.0
  0
LINE
  5
2F40
100
AcDbEntity
  8
BORDER
100
AcDbLine
 10
72.004344
 20
52.335495
 30
0.0
 11
72.067777
 21
52.335495
 31
0.0
  0
LINE
  5
2F41
100
AcDbEntity
  8
BORDER
100
AcDbLine
 10
72.036061
 20
52.541519
 30
0.0
 11
72.036061
 21
52.335495
 31
0.0
  0
LINE
  5
2F42
100
AcDbEntity
  8
BORDER
100
AcDbLine
 10
72.131546
 20
52.335495
 30
0.0
 11
72.131546
 21
52.541519
 31
0.0
  0
LINE
  5
2F43
100
AcDbEntity
  8
BORDER
100
AcDbLine
 10
71.874624
 20
52.437514
 30
0.0
 11
71.939966
 21
52.335495
 31
0.0
  0
ARC
  5
2F44
100
AcDbEntity
  8
BORDER
100
AcDbCircle
 10
72.395805
 20
52.386083
 30
0.0
 40
0.029093
100
AcDbArc
 50
331.630608
 51
60.315223
  0
ARC
  5
2F45
100
AcDbEntity
  8
BORDER
100
AcDbCircle
 10
72.32572
 20
52.497598
 30
0.0
 40
0.029093
100
AcDbArc
 50
140.101426
 51
236.383068
  0
ARC
  5
2F46
100
AcDbEntity
  8
BORDER
100
AcDbCircle
 10
73.263147
 20
53.907635
 30
0.0
 40
1.722307
100
AcDbArc
 50
236.383068
 51
240.315223
  0
ARC
  5
2F47
100
AcDbEntity
  8
BORDER
100
AcDbCircle
 10
72.354469
 20
52.477843
 30
0.0
 40
0.063905
100
AcDbArc
 50
25.379638
 51
143.047804
  0
ARC
  5
2F48
100
AcDbEntity
  8
BORDER
100
AcDbCircle
 10
72.362763
 20
52.400828
 30
0.0
 40
0.06523
100
AcDbArc
 50
200.502447
 51
334.026213
  0
LINE
  5
2F49
100
AcDbEntity
  8
BORDER
100
AcDbLine
 10
72.983822
 20
50.635411
 30
0.0
 11
72.983822
 21
52.694358
 31
0.0
  0
LWPOLYLINE
  5
2F4A
100
AcDbEntity
  8
BORDER
 62
     5
100
AcDbPolyline
 90
        2
 70
     0
 43
0.171579
 10
73.32698
 20
50.635411
 10
73.32698
 20
52.694358
  0
LWPOLYLINE
  5
2F4B
100
AcDbEntity
  8
BORDER
 62
     5
100
AcDbPolyline
 90
        2
 70
     0
 43
0.171579
 10
73.670138
 20
52.694358
 10
73.670138
 20
50.635411
  0
TEXT
  5
2F4C
100
AcDbEntity
  8
BORDER
 62
     6
100
AcDbText
 10
75.072941
 20
52.547154
 30
0.0
 40
0.177062
  1
FLOAT CONTROL PLATE
  7
ROMANC
100
AcDbText
  0
LINE
  5
2F4D
100
AcDbEntity
  8
BORDER
100
AcDbLine
 10
74.013296
 20
50.635411
 30
0.0
 11
74.013296
 21
51.418376
 31
0.0
  0
TEXT
  5
2F4E
100
AcDbEntity
  8
BORDER
 62
     6
100
AcDbText
 10
74.063019
 20
52.01642
 30
0.0
 40
0.153967
  1
Reference:
  7
ROMANC
100
AcDbText
  0
LINE
  5
2F4F
100
AcDbEntity
  8
BORDER
100
AcDbLine
 10
74.013296
 20
51.664884
 30
0.0
 11
74.013296
 21
52.694358
 31
0.0
  0
TEXT
  5
2F50
100
AcDbEntity
  8
BORDER
 62
     6
100
AcDbText
 10
76.494268
 20
51.90726
 30
0.0
 40
0.153967
  1
-
  7
ROMANC
100
AcDbText
  0
TEXT
  5
2F51
100
AcDbEntity
  8
BORDER
 62
     6
100
AcDbText
 10
80.97878
 20
50.773283
 30
0.0
 40
0.197316
  1
07/08/03
  7
ROMAND
100
AcDbText
  0
LINE
  5
2F52
100
AcDbEntity
  8
BORDER
100
AcDbLine
 10
79.243855
 20
53.037516
 30
0.0
 11
86.889979
 21
53.037516
 31
0.0
  0
LINE
  5
2F53
100
AcDbEntity
  8
BORDER
100
AcDbLine
 10
79.243855
 20
51.418376
 30
0.0
 11
83.115242
 21
51.418376
 31
0.0
  0
LINE
  5
2F54
100
AcDbEntity
  8
BORDER
100
AcDbLine
 10
79.243855
 20
50.635411
 30
0.0
 11
83.115242
 21
50.635411
 31
0.0
  0
TEXT
  5
2F55
100
AcDbEntity
  8
BORDER
 62
     6
100
AcDbText
 10
81.833462
 20
51.759021
 30
0.0
 40
0.128798
  1
in this print by any other source than TOPP INDUSTRIES, INC.
 41
0.839168
  7
ROMANS
 72
     5
 11
87.139821
 21
51.759021
 31
0.0
100
AcDbText
  0
TEXT
  5
2F56
100
AcDbEntity
  8
BORDER
 62
     6
100
AcDbText
 10
81.833462
 20
51.967551
 30
0.0
 40
0.128798
  1
and will not be used to manufacture or procure the manufacture of the items shown
 41
0.600404
  7
ROMANS
 72
     5
 11
87.139821
 21
51.967551
 31
0.0
100
AcDbText
  0
TEXT
  5
2F57
100
AcDbEntity
  8
BORDER
 62
     6
100
AcDbText
 10
81.833462
 20
52.176081
 30
0.0
 40
0.128798
  1
be used as a record or to identify or inspect parts or for other information purposes
 41
0.596266
  7
ROMANS
 72
     5
 11
87.139821
 21
52.176081
 31
0.0
100
AcDbText
  0
TEXT
  5
2F58
100
AcDbEntity
  8
BORDER
 62
     6
100
AcDbText
 10
81.833462
 20
52.384611
 30
0.0
 40
0.128798
  1
restriction includes, but is not limited to the condition that this print will not only
 41
0.626489
  7
ROMANS
 72
     5
 11
87.139821
 21
52.384611
 31
0.0
100
AcDbText
  0
TEXT
  5
2F59
100
AcDbEntity
  8
BORDER
 62
     6
100
AcDbText
 10
81.833462
 20
52.59314
 30
0.0
 40
0.128798
  1
by TOPP INDUSTRIES, INC. It is furnished on a strictly confidential basis.  This
 41
0.659437
  7
ROMANS
 72
     5
 11
87.139821
 21
52.59314
 31
0.0
100
AcDbText
  0
TEXT
  5
2F5A
100
AcDbEntity
  8
BORDER
 62
     6
100
AcDbText
 10
81.833462
 20
52.80167
 30
0.0
 40
0.128798
  1
This print is and contains confidential proprietary information owned exclusively
 41
0.656934
  7
ROMANS
 72
     5
 11
87.139821
 21
52.80167
 31
0.0
100
AcDbText
  0
LINE
  5
2F5B
100
AcDbEntity
  8
BORDER
100
AcDbLine
 10
79.243855
 20
51.664884
 30
0.0
 11
87.233137
 21
51.664884
 31
0.0
  0
TEXT
  5
2F5C
100
AcDbEntity
  8
BORDER
 62
     6
100
AcDbText
 10
79.31419
 20
51.709819
 30
0.0
 40
0.153967
  1
Date: 07/08/03
  7
ROMANC
100
AcDbText
  0
TEXT
  5
2F5D
100
AcDbEntity
  8
BORDER
 62
     6
100
AcDbText
 10
79.322967
 20
51.150466
 30
0.0
 40
0.153967
  1
Supersedes Prints
  7
ROMANC
100
AcDbText
  0
TEXT
  5
2F5E
100
AcDbEntity
  8
BORDER
 62
     6
100
AcDbText
 10
79.322967
 20
50.901186
 30
0.0
 40
0.153967
  1
Prior To:
  7
ROMANC
100
AcDbText
  0
TEXT
  5
2F5F
100
AcDbEntity
  8
BORDER
 62
     6
100
AcDbText
 10
79.31419
 20
52.810374
 30
0.0
 40
0.153967
  1
Scale: None
  7
ROMANC
100
AcDbText
  0
TEXT
  5
2F60
100
AcDbEntity
  8
BORDER
 62
     6
100
AcDbText
 10
79.31419
 20
52.076671
 30
0.0
 40
0.153967
  1
Appv'd By: .
  7
ROMANC
100
AcDbText
  0
TEXT
  5
2F61
100
AcDbEntity
  8
BORDER
 62
     6
100
AcDbText
 10
79.31419
 20
52.443522
 30
0.0
 40
0.153967
  1
Drawn By:
  7
ROMANC
100
AcDbText
  0
LINE
  5
2F62
100
AcDbEntity
  8
BORDER
100
AcDbLine
 10
79.243855
 20
51.664884
 30
0.0
 11
79.243855
 21
53.037516
 31
0.0
  0
LINE
  5
2F63
100
AcDbEntity
  8
BORDER
100
AcDbLine
 10
79.243855
 20
50.635411
 30
0.0
 11
79.243855
 21
51.418376
 31
0.0
  0
TEXT
  5
2F64
100
AcDbEntity
  8
BORDER
 62
     6
100
AcDbText
 10
80.727179
 20
52.427125
 30
0.0
 40
0.209997
  1
RM
  7
COUNTRYBLUEPRINT
100
AcDbText
  0
TEXT
  5
2F65
100
AcDbEntity
  8
BORDER
 62
     6
100
AcDbText
 10
84.759671
 20
50.810444
 30
0.0
 40
0.4619
  1
10097
  7
ROMANC
100
AcDbText
  0
LINE
  5
2F66
100
AcDbEntity
  8
BORDER
100
AcDbLine
 10
83.361751
 20
50.635411
 30
0.0
 11
87.233137
 21
50.635411
 31
0.0
  0
LINE
  5
2F67
100
AcDbEntity
  8
BORDER
100
AcDbLine
 10
83.361751
 20
51.418376
 30
0.0
 11
87.233137
 21
51.418376
 31
0.0
  0
TEXT
  5
2F68
100
AcDbEntity
  8
BORDER
 62
     6
100
AcDbText
 10
83.44278
 20
51.167527
 30
0.0
 40
0.153967
  1
Reference
  7
ROMANC
100
AcDbText
  0
TEXT
  5
2F69
100
AcDbEntity
  8
BORDER
 62
     6
100
AcDbText
 10
83.44278
 20
50.918248
 30
0.0
 40
0.153967
  1
No:
  7
ROMANC
100
AcDbText
  0
LINE
  5
2F6A
100
AcDbEntity
  8
BORDER
100
AcDbLine
 10
83.115242
 20
51.418376
 30
0.0
 11
83.115242
 21
50.635411
 31
0.0
  0
LINE
  5
2F6B
100
AcDbEntity
  8
BORDER
100
AcDbLine
 10
83.361751
 20
51.418376
 30
0.0
 11
83.361751
 21
50.635411
 31
0.0
  0
LWPOLYLINE
  5
2F6C
100
AcDbEntity
  8
BORDER
 62
     5
100
AcDbPolyline
 90
        2
 70
     0
 43
0.171579
 10
86.889979
 20
53.380674
 42
-0.414214
 10
87.576295
 20
52.694358
 42
0.560527
  0
ARC
  5
2F6D
100
AcDbEntity
  8
BORDER
100
AcDbCircle
 10
86.889979
 20
52.694358
 30
0.0
 40
0.343158
100
AcDbArc
 50
0.0
 51
90.0
  0
LWPOLYLINE
  5
2F6E
100
AcDbEntity
  8
BORDER
 62
     5
100
AcDbPolyline
 90
        2
 70
     0
 43
0.171579
 10
87.576295
 20
50.635411
 10
87.576295
 20
52.694358
  0
LWPOLYLINE
  5
2F6F
100
AcDbEntity
  8
BORDER
 62
     5
100
AcDbPolyline
 90
        2
 70
     0
 43
0.171579
 10
87.919453
 20
50.635411
 10
87.919453
 20
52.694358
  0
LINE
  5
2F70
100
AcDbEntity
  8
BORDER
100
AcDbLine
 10
87.233137
 20
51.418376
 30
0.0
 11
87.233137
 21
50.635411
 31
0.0
  0
LINE
  5
2F71
100
AcDbEntity
  8
BORDER
100
AcDbLine
 10
87.233137
 20
52.694358
 30
0.0
 11
87.233137
 21
51.664884
 31
0.0
  0
LWPOLYLINE
  5
2F72
100
AcDbEntity
  8
BORDER
 62
     5
100
AcDbPolyline
 90
        2
 70
     0
 43
0.171579
 10
92.380507
 20
50.292253
 42
0.414214
 10
93.066823
 20
50.978569
 42
-0.560527
  0
LINE
  5
2F73
100
AcDbEntity
  8
BORDER
100
AcDbLine
 10
92.380507
 20
50.635411
 30
0.0
 11
88.262611
 21
50.635411
 31
0.0
  0
TEXT
  5
2F74
100
AcDbEntity
  8
BORDER
 62
     6
100
AcDbText
 10
88.978414
 20
52.168035
 30
0.0
 40
0.171579
  1
First Released 06/27/03
  7
ROMAND
100
AcDbText
  0
LINE
  5
2F75
100
AcDbEntity
  8
BORDER
100
AcDbLine
 10
92.380507
 20
51.052479
 30
0.0
 11
88.605769
 21
51.052479
 31
0.0
  0
LINE
  5
2F76
100
AcDbEntity
  8
BORDER
100
AcDbLine
 10
92.380507
 20
51.395637
 30
0.0
 11
88.605769
 21
51.395637
 31
0.0
  0
LINE
  5
2F77
100
AcDbEntity
  8
BORDER
100
AcDbLine
 10
92.380507
 20
51.738795
 30
0.0
 11
88.605769
 21
51.738795
 31
0.0
  0
LINE
  5
2F78
100
AcDbEntity
  8
BORDER
100
AcDbLine
 10
92.380507
 20
52.081953
 30
0.0
 11
88.605769
 21
52.081953
 31
0.0
  0
LINE
  5
2F79
100
AcDbEntity
  8
BORDER
100
AcDbLine
 10
92.380507
 20
52.425111
 30
0.0
 11
88.605769
 21
52.425111
 31
0.0
  0
LINE
  5
2F7A
100
AcDbEntity
  8
BORDER
100
AcDbLine
 10
92.380507
 20
53.037516
 30
0.0
 11
88.605769
 21
53.037516
 31
0.0
  0
LWPOLYLINE
  5
2F7B
100
AcDbEntity
  8
BORDER
 62
     5
100
AcDbPolyline
 90
        2
 70
     0
 43
0.171579
 10
92.380507
 20
53.380674
 10
88.605769
 20
53.380674
  0
TEXT
  5
2F7C
100
AcDbEntity
  8
BORDER
 62
     6
100
AcDbText
 10
89.577908
 20
52.578799
 30
0.0
 40
0.23095
  1
Revisions
  7
ROMANC
100
AcDbText
  0
ARC
  5
2F7D
100
AcDbEntity
  8
BORDER
100
AcDbCircle
 10
88.605769
 20
52.694358
 30
0.0
 40
0.343158
100
AcDbArc
 50
90.0
 51
180.0
  0
LINE
  5
2F7E
100
AcDbEntity
  8
BORDER
100
AcDbLine
 10
88.605769
 20
52.425111
 30
0.0
 11
88.605769
 21
51.052479
 31
0.0
  0
LINE
  5
2F7F
100
AcDbEntity
  8
BORDER
100
AcDbLine
 10
88.948927
 20
52.425111
 30
0.0
 11
88.948927
 21
51.052479
 31
0.0
  0
LINE
  5
2F80
100
AcDbEntity
  8
BORDER
100
AcDbLine
 10
88.262611
 20
50.635411
 30
0.0
 11
88.262611
 21
52.694358
 31
0.0
  0
LWPOLYLINE
  5
2F81
100
AcDbEntity
  8
BORDER
100
AcDbPolyline
 90
        6
 70
     1
 43
0.0
 10
88.850406
 20
52.126289
 10
88.923516
 20
52.252919
 10
88.850406
 20
52.37955
 10
88.704186
 20
52.37955
 10
88.631076
 20
52.252919
 10
88.704186
 20
52.126289
  0
TEXT
  5
2F82
100
AcDbEntity
  8
BORDER
 62
     6
100
AcDbText
 10
88.695809
 20
52.168035
 30
0.0
 40
0.171579
  1
1
  7
ROMAND
100
AcDbText
  0
ARC
  5
2F83
100
AcDbEntity
  8
BORDER
100
AcDbCircle
 10
92.380507
 20
52.694358
 30
0.0
 40
0.343158
100
AcDbArc
 50
0.0
 51
90.0
  0
LWPOLYLINE
  5
2F84
100
AcDbEntity
  8
BORDER
 62
     5
100
AcDbPolyline
 90
        2
 70
     0
 43
0.171579
 10
92.380507
 20
53.380674
 42
-0.414214
 10
93.066823
 20
52.694358
 42
0.560527
  0
LINE
  5
2F85
100
AcDbEntity
  8
BORDER
100
AcDbLine
 10
92.380507
 20
52.425111
 30
0.0
 11
92.380507
 21
51.052479
 31
0.0
  0
LINE
  5
2F86
100
AcDbEntity
  8
BORDER
100
AcDbLine
 10
92.723665
 20
50.978569
 30
0.0
 11
92.723665
 21
52.694358
 31
0.0
  0
LWPOLYLINE
  5
2F87
100
AcDbEntity
  8
BORDER
 62
     5
100
AcDbPolyline
 90
        2
 70
     0
 43
0.171579
 10
93.066823
 20
52.694358
 10
93.066823
 20
50.978569
  0
ARC
  5
2F88
100
AcDbEntity
  8
BORDER
100
AcDbCircle
 10
92.380507
 20
50.978569
 30
0.0
 40
0.343158
100
AcDbArc
 50
270.0
 51
0.0
  0
LWPOLYLINE
  5
2F89
100
AcDbEntity
  8
BORDER
 62
     5
100
AcDbPolyline
 90
        2
 70
     0
 43
0.068632
 10
92.792296
 20
82.684942
 10
68.454137
 20
82.684942
  0
LINE
  5
2F8A
100
AcDbEntity
  8
BORDER
 62
     5
100
AcDbLine
 10
92.792296
 20
82.684942
 30
0.0
 11
68.454137
 21
82.684942
 31
0.0
  0
LINE
  5
2F8B
100
AcDbEntity
  8
LIMITS
 62
     7
100
AcDbLine
 10
93.615875
 20
83.233994
 30
0.0
 11
67.630558
 21
83.233994
 31
0.0
  0
LEADER
  5
2F99
100
AcDbEntity
  8
DIM
100
AcDbLeader
  3
STANDARD
 73
     0
 40
0.8
 41
4.428571
 76
     2
 10
73.413208
 20
60.649291
 30
0.0
 10
75.235574
 20
60.224607
 30
0.0
 77
   256
340
2F9A
1001
ACAD
1000
DSTYLE
1002
{
1070
   340
1005
31
1070
   287
1070
     5
1070
    41
1040
0.25
1002
}
  0
MTEXT
  5
2F9A
102
{ACAD_REACTORS
330
2F99
102
}
100
AcDbEntity
  8
DIM
100
AcDbMText
 10
75.325574
 20
60.224607
 30
0.0
 40
0.3
 41
0.0
 71
     4
 72
     1
  1
\A1;WELD COUPLING TO\PINSPECTION PLATE
  7
ROMANS
  0
ENDSEC
  0
SECTION
  2
OBJECTS
  0
DICTIONARY
  5
C
100
AcDbDictionary
  3
ACAD_GROUP
350
D
  3
ACAD_MLINESTYLE
350
1A
  3
ACDBVARIABLEDICTIONARY
350
48
  0
DICTIONARY
  5
D
102
{ACAD_REACTORS
330
C
102
}
100
AcDbDictionary
  0
DICTIONARY
  5
1A
102
{ACAD_REACTORS
330
C
102
}
100
AcDbDictionary
  3
STANDARD
350
1B
  0
DICTIONARY
  5
48
102
{ACAD_REACTORS
330
C
102
}
100
AcDbDictionary
  3
DIMADEC
350
49
  0
MLINESTYLE
  5
1B
102
{ACAD_REACTORS
330
1A
102
}
100
AcDbMlineStyle
  2
STANDARD
 70
     0
  3

 62
   256
 51
90.0
 52
90.0
 71
     2
 49
0.5
 62
   256
  6
BYLAYER
 49
-0.5
 62
   256
  6
BYLAYER
  0
DICTIONARYVAR
  5
49
102
{ACAD_REACTORS
330
48
102
}
100
DictionaryVariables
280
     0
  1
0
  0
ENDSEC
  0
EOF
