  0
SECTION
  2
HEADER
  9
$ACADVER
  1
AC1014
  9
$ACADMAINTVER
 70
     0
  9
$DWGCODEPAGE
  3
ANSI_1252
  9
$INSBASE
 10
0.0
 20
0.0
 30
0.0
  9
$EXTMIN
 10
766.02511
 20
-47.143128
 30
-10.196448
  9
$EXTMAX
 10
790.386345
 20
-15.616824
 30
9.182634
  9
$LIMMIN
 10
-115.019502
 20
-110.73871
  9
$LIMMAX
 10
148.912433
 20
234.000152
  9
$ORTHOMODE
 70
     0
  9
$REGENMODE
 70
     1
  9
$FILLMODE
 70
     1
  9
$QTEXTMODE
 70
     0
  9
$MIRRTEXT
 70
     1
  9
$DRAGMODE
 70
     2
  9
$LTSCALE
 40
5.0
  9
$OSMODE
 70
   675
  9
$ATTMODE
 70
     1
  9
$TEXTSIZE
 40
0.349156
  9
$TRACEWID
 40
0.05
  9
$TEXTSTYLE
  7
ROMANT
  9
$CLAYER
  8
DIM
  9
$CELTYPE
  6
BYLAYER
  9
$CECOLOR
 62
   256
  9
$CELTSCALE
 40
1.0
  9
$DELOBJ
 70
     1
  9
$DISPSILH
 70
     0
  9
$DIMSCALE
 40
1.0
  9
$DIMASZ
 40
3.0
  9
$DIMEXO
 40
0.5
  9
$DIMDLI
 40
0.38
  9
$DIMRND
 40
0.0
  9
$DIMDLE
 40
0.0
  9
$DIMEXE
 40
2.5
  9
$DIMTP
 40
0.0
  9
$DIMTM
 40
0.0
  9
$DIMTXT
 40
0.18
  9
$DIMCEN
 40
0.09
  9
$DIMTSZ
 40
0.0
  9
$DIMTOL
 70
     0
  9
$DIMLIM
 70
     0
  9
$DIMTIH
 70
     1
  9
$DIMTOH
 70
     1
  9
$DIMSE1
 70
     0
  9
$DIMSE2
 70
     0
  9
$DIMTAD
 70
     0
  9
$DIMZIN
 70
     0
  9
$DIMBLK
  1

  9
$DIMASO
 70
     1
  9
$DIMSHO
 70
     1
  9
$DIMPOST
  1

  9
$DIMAPOST
  1

  9
$DIMALT
 70
     0
  9
$DIMALTD
 70
     2
  9
$DIMALTF
 40
25.4
  9
$DIMLFAC
 40
1.0
  9
$DIMTOFL
 70
     0
  9
$DIMTVP
 40
0.0
  9
$DIMTIX
 70
     0
  9
$DIMSOXD
 70
     0
  9
$DIMSAH
 70
     0
  9
$DIMBLK1
  1

  9
$DIMBLK2
  1

  9
$DIMSTYLE
  2
STANDARD
  9
$DIMCLRD
 70
     0
  9
$DIMCLRE
 70
     0
  9
$DIMCLRT
 70
     0
  9
$DIMTFAC
 40
1.0
  9
$DIMGAP
 40
3.0
  9
$DIMJUST
 70
     0
  9
$DIMSD1
 70
     0
  9
$DIMSD2
 70
     0
  9
$DIMTOLJ
 70
     1
  9
$DIMTZIN
 70
     0
  9
$DIMALTZ
 70
     0
  9
$DIMALTTZ
 70
     0
  9
$DIMFIT
 70
     5
  9
$DIMUPT
 70
     0
  9
$DIMUNIT
 70
     2
  9
$DIMDEC
 70
     4
  9
$DIMTDEC
 70
     4
  9
$DIMALTU
 70
     2
  9
$DIMALTTD
 70
     2
  9
$DIMTXSTY
  7
ROMANT
  9
$DIMAUNIT
 70
     0
  9
$LUNITS
 70
     2
  9
$LUPREC
 70
     4
  9
$SKETCHINC
 40
0.1
  9
$FILLETRAD
 40
0.0
  9
$AUNITS
 70
     0
  9
$AUPREC
 70
     0
  9
$MENU
  1
acad
  9
$ELEVATION
 40
0.0
  9
$PELEVATION
 40
0.0
  9
$THICKNESS
 40
0.0
  9
$LIMCHECK
 70
     0
  9
$BLIPMODE
 70
     0
  9
$CHAMFERA
 40
0.0
  9
$CHAMFERB
 40
0.0
  9
$CHAMFERC
 40
0.0
  9
$CHAMFERD
 40
0.0
  9
$SKPOLY
 70
     0
  9
$TDCREATE
 40
2449610.443885648
  9
$TDUPDATE
 40
2452934.369638472
  9
$TDINDWG
 40
0.2765437731
  9
$TDUSRTIMER
 40
0.2765437731
  9
$USRTIMER
 70
     1
  9
$ANGBASE
 50
0.0
  9
$ANGDIR
 70
     0
  9
$PDMODE
 70
     0
  9
$PDSIZE
 40
0.0
  9
$PLINEWID
 40
0.0
  9
$COORDS
 70
     1
  9
$SPLFRAME
 70
     0
  9
$SPLINETYPE
 70
     6
  9
$SPLINESEGS
 70
     8
  9
$ATTDIA
 70
     0
  9
$ATTREQ
 70
     1
  9
$HANDLING
 70
     1
  9
$HANDSEED
  5
181E
  9
$SURFTAB1
 70
     6
  9
$SURFTAB2
 70
     6
  9
$SURFTYPE
 70
     6
  9
$SURFU
 70
     6
  9
$SURFV
 70
     6
  9
$UCSNAME
  2

  9
$UCSORG
 10
0.0
 20
0.0
 30
0.0
  9
$UCSXDIR
 10
1.0
 20
0.0
 30
0.0
  9
$UCSYDIR
 10
0.0
 20
1.0
 30
0.0
  9
$PUCSNAME
  2

  9
$PUCSORG
 10
0.0
 20
0.0
 30
0.0
  9
$PUCSXDIR
 10
1.0
 20
0.0
 30
0.0
  9
$PUCSYDIR
 10
0.0
 20
1.0
 30
0.0
  9
$USERI1
 70
     0
  9
$USERI2
 70
     0
  9
$USERI3
 70
     0
  9
$USERI4
 70
     0
  9
$USERI5
 70
     0
  9
$USERR1
 40
0.0
  9
$USERR2
 40
0.0
  9
$USERR3
 40
0.0
  9
$USERR4
 40
0.0
  9
$USERR5
 40
0.0
  9
$WORLDVIEW
 70
     1
  9
$SHADEDGE
 70
     3
  9
$SHADEDIF
 70
    70
  9
$TILEMODE
 70
     1
  9
$MAXACTVP
 70
    16
  9
$PINSBASE
 10
0.0
 20
0.0
 30
0.0
  9
$PLIMCHECK
 70
     0
  9
$PEXTMIN
 10
1.000000E+20
 20
1.000000E+20
 30
1.000000E+20
  9
$PEXTMAX
 10
-1.000000E+20
 20
-1.000000E+20
 30
-1.000000E+20
  9
$PLIMMIN
 10
0.0
 20
0.0
  9
$PLIMMAX
 10
12.0
 20
9.0
  9
$UNITMODE
 70
     0
  9
$VISRETAIN
 70
     0
  9
$PLINEGEN
 70
     0
  9
$PSLTSCALE
 70
     1
  9
$TREEDEPTH
 70
  3020
  9
$PICKSTYLE
 70
     1
  9
$CMLSTYLE
  2
STANDARD
  9
$CMLJUST
 70
     0
  9
$CMLSCALE
 40
1.0
  9
$PROXYGRAPHICS
 70
     1
  9
$MEASUREMENT
 70
     0
  0
ENDSEC
  0
SECTION
  2
CLASSES
  0
CLASS
  1
DICTIONARYVAR
  2
AcDbDictionaryVar
  3
"AutoCAD"
 90
        0
280
     0
281
     0
  0
CLASS
  1
LWPOLYLINE
  2
AcDbPolyline
  3
"AutoCAD"
 90
        0
280
     0
281
     1
  0
CLASS
  1
HATCH
  2
AcDbHatch
  3
"ACAD_SEDONA"
 90
        0
280
     0
281
     1
  0
ENDSEC
  0
SECTION
  2
TABLES
  0
TABLE
  2
VPORT
  5
8
100
AcDbSymbolTable
 70
     1
  0
VPORT
  5
1815
100
AcDbSymbolTableRecord
100
AcDbViewportTableRecord
  2
*ACTIVE
 70
     0
 10
0.0
 20
0.0
 11
1.0
 21
1.0
 12
778.187353
 22
-31.38449
 13
0.0
 23
0.0
 14
1.0
 24
1.0
 15
0.0
 25
0.0
 16
0.0
 26
0.0
 36
1.0
 17
0.0
 27
0.0
 37
0.0
 40
31.870968
 41
1.71048
 42
50.0
 43
0.0
 44
0.0
 50
0.0
 51
0.0
 71
     0
 72
   100
 73
     1
 74
     0
 75
     0
 76
     0
 77
     0
 78
     0
  0
ENDTAB
  0
TABLE
  2
LTYPE
  5
5
100
AcDbSymbolTable
 70
     1
  0
LTYPE
  5
11
100
AcDbSymbolTableRecord
100
AcDbLinetypeTableRecord
  2
BYBLOCK
 70
     0
  3

 72
    65
 73
     0
 40
0.0
  0
LTYPE
  5
12
100
AcDbSymbolTableRecord
100
AcDbLinetypeTableRecord
  2
BYLAYER
 70
     0
  3

 72
    65
 73
     0
 40
0.0
  0
LTYPE
  5
13
100
AcDbSymbolTableRecord
100
AcDbLinetypeTableRecord
  2
CONTINUOUS
 70
     0
  3
Solid line
 72
    65
 73
     0
 40
0.0
  0
ENDTAB
  0
TABLE
  2
LAYER
  5
2
100
AcDbSymbolTable
 70
     5
  0
LAYER
  5
E
100
AcDbSymbolTableRecord
100
AcDbLayerTableRecord
  2
0
 70
     0
 62
     7
  6
CONTINUOUS
  0
LAYER
  5
2D
100
AcDbSymbolTableRecord
100
AcDbLayerTableRecord
  2
OBJECT
 70
     0
 62
     2
  6
CONTINUOUS
  0
LAYER
  5
2E
100
AcDbSymbolTableRecord
100
AcDbLayerTableRecord
  2
DIM
 70
     0
 62
     6
  6
CONTINUOUS
  0
LAYER
  5
31
100
AcDbSymbolTableRecord
100
AcDbLayerTableRecord
  2
BORDER
 70
     0
 62
     5
  6
CONTINUOUS
  0
LAYER
  5
1213
100
AcDbSymbolTableRecord
100
AcDbLayerTableRecord
  2
LIMITS
 70
     0
 62
     7
  6
CONTINUOUS
  0
ENDTAB
  0
TABLE
  2
STYLE
  5
3
100
AcDbSymbolTable
 70
     6
  0
STYLE
  5
F
100
AcDbSymbolTableRecord
100
AcDbTextStyleTableRecord
  2
STANDARD
 70
     0
 40
0.0
 41
1.0
 50
0.0
 71
     0
 42
0.2
  3
txt
  4

  0
STYLE
  5
24
100
AcDbSymbolTableRecord
100
AcDbTextStyleTableRecord
  2
ROMANS
 70
     0
 40
2.5
 41
1.0
 50
0.0
 71
     0
 42
2.5
  3
romans
  4

  0
STYLE
  5
25
100
AcDbSymbolTableRecord
100
AcDbTextStyleTableRecord
  2
ROMANT
 70
     0
 40
2.5
 41
1.0
 50
0.0
 71
     0
 42
0.349156
  3
romant
  4

  0
STYLE
  5
26
100
AcDbSymbolTableRecord
100
AcDbTextStyleTableRecord
  2
ROMAND
 70
     0
 40
0.1
 41
1.0
 50
0.0
 71
     0
 42
0.1
  3
romand
  4

  0
STYLE
  5
27
100
AcDbSymbolTableRecord
100
AcDbTextStyleTableRecord
  2
ROMANC
 70
     0
 40
0.0531
 41
1.0
 50
0.0
 71
     0
 42
0.0531
  3
romanc
  4

  0
STYLE
  5
1214
100
AcDbSymbolTableRecord
100
AcDbTextStyleTableRecord
  2
COUNTRYBLUEPRINT
 70
     0
 40
0.061059
 41
1.0
 50
0.0
 71
     0
 42
0.061059
  3
cobt____.pfb
  4

  0
ENDTAB
  0
TABLE
  2
VIEW
  5
6
100
AcDbSymbolTable
 70
     0
  0
ENDTAB
  0
TABLE
  2
UCS
  5
7
100
AcDbSymbolTable
 70
     0
  0
ENDTAB
  0
TABLE
  2
APPID
  5
9
100
AcDbSymbolTable
 70
     2
  0
APPID
  5
10
100
AcDbSymbolTableRecord
100
AcDbRegAppTableRecord
  2
ACAD
 70
     0
  0
APPID
  5
117A
100
AcDbSymbolTableRecord
100
AcDbRegAppTableRecord
  2
DRAWINGVARIABLESXDATA
 70
     0
  0
ENDTAB
  0
TABLE
  2
DIMSTYLE
  5
A
100
AcDbSymbolTable
 70
     1
  0
DIMSTYLE
105
10A7
100
AcDbSymbolTableRecord
100
AcDbDimStyleTableRecord
  2
STANDARD
 70
     0
  3

  4

  5

  6

  7

 40
1.0
 41
0.18
 42
0.0625
 43
0.38
 44
0.18
 45
0.0
 46
0.0
 47
0.0
 48
0.0
140
0.18
141
0.09
142
0.0
143
25.4
144
1.0
145
0.0
146
1.0
147
0.09
 71
     0
 72
     0
 73
     1
 74
     1
 75
     0
 76
     0
 77
     0
 78
     0
170
     0
171
     2
172
     0
173
     0
174
     0
175
     0
176
     0
177
     0
178
     0
270
     2
271
     4
272
     4
273
     2
274
     2
340
F
275
     0
280
     0
281
     0
282
     0
283
     1
284
     0
285
     0
286
     0
287
     3
288
     0
  0
ENDTAB
  0
TABLE
  2
BLOCK_RECORD
  5
1
100
AcDbSymbolTable
 70
     0
  0
BLOCK_RECORD
  5
17
100
AcDbSymbolTableRecord
100
AcDbBlockTableRecord
  2
*MODEL_SPACE
  0
BLOCK_RECORD
  5
14
100
AcDbSymbolTableRecord
100
AcDbBlockTableRecord
  2
*PAPER_SPACE
  0
ENDTAB
  0
ENDSEC
  0
SECTION
  2
BLOCKS
  0
BLOCK
  5
35
100
AcDbEntity
  8
0
100
AcDbBlockBegin
  2
*MODEL_SPACE
 70
     0
 10
0.0
 20
0.0
 30
0.0
  3
*MODEL_SPACE
  1

  0
ENDBLK
  5
36
100
AcDbEntity
  8
0
100
AcDbBlockEnd
  0
BLOCK
  5
33
100
AcDbEntity
 67
     1
  8
0
100
AcDbBlockBegin
  2
*PAPER_SPACE
 70
     0
 10
0.0
 20
0.0
 30
0.0
  3
*PAPER_SPACE
  1

  0
ENDBLK
  5
34
100
AcDbEntity
 67
     1
  8
0
100
AcDbBlockEnd
  0
ENDSEC
  0
SECTION
  2
ENTITIES
  0
TEXT
  5
1186
100
AcDbEntity
  8
0
  6
BYBLOCK
 62
     0
100
AcDbText
 10
-93.885622
 20
14.020659
 30
0.0
 40
2.5
  1
  
  7
ROMANS
 72
     1
 11
-91.385622
 21
15.270659
 31
0.0
100
AcDbText
 73
     2
  0
TEXT
  5
1190
100
AcDbEntity
  8
0
  6
BYBLOCK
 62
     0
100
AcDbText
 10
-59.123566
 20
69.290606
 30
0.0
 40
2.5
  1
  
  7
ROMANS
 72
     1
 11
-56.623566
 21
70.540606
 31
0.0
100
AcDbText
 73
     2
  0
TEXT
  5
119A
100
AcDbEntity
  8
0
  6
BYBLOCK
 62
     0
100
AcDbText
 10
-59.123566
 20
22.833105
 30
0.0
 40
2.5
  1
  
  7
ROMANS
 72
     1
 11
-56.623566
 21
24.083105
 31
0.0
100
AcDbText
 73
     2
  0
TEXT
  5
11A4
100
AcDbEntity
  8
0
  6
BYBLOCK
 62
     0
100
AcDbText
 10
-59.123566
 20
-37.439112
 30
0.0
 40
2.5
  1
  
  7
ROMANS
 72
     1
 11
-56.623566
 21
-36.189112
 31
0.0
100
AcDbText
 73
     2
  0
LINE
  5
12F8
100
AcDbEntity
  8
LIMITS
100
AcDbLine
 10
790.386345
 20
-47.143128
 30
0.0
 11
790.386345
 21
-16.258912
 31
0.0
  0
LINE
  5
12F9
100
AcDbEntity
  8
LIMITS
100
AcDbLine
 10
790.386345
 20
-16.258912
 30
0.0
 11
790.386345
 21
-47.143128
 31
0.0
  0
LINE
  5
12FA
100
AcDbEntity
  8
LIMITS
 62
     7
100
AcDbLine
 10
790.386345
 20
-47.143128
 30
0.0
 11
790.386345
 21
-15.616824
 31
0.0
  0
LWPOLYLINE
  5
12FB
100
AcDbEntity
  8
BORDER
 62
     5
100
AcDbPolyline
 90
        2
 70
     0
 43
0.064342
 10
789.871608
 20
-43.481564
 10
789.871608
 20
-16.388929
  0
LINE
  5
12FC
100
AcDbEntity
  8
LIMITS
 62
     7
100
AcDbLine
 10
766.02511
 20
-15.616824
 30
0.0
 11
766.02511
 21
-47.143128
 31
0.0
  0
LWPOLYLINE
  5
12FD
100
AcDbEntity
  8
BORDER
 62
     5
100
AcDbPolyline
 90
        2
 70
     0
 43
0.064342
 10
766.539847
 20
-43.481564
 10
766.539847
 20
-16.388929
  0
LWPOLYLINE
  5
12FE
100
AcDbEntity
  8
BORDER
 62
     5
100
AcDbPolyline
 90
        6
 70
     0
 43
0.114641
 10
766.539847
 20
-43.481564
 10
766.539847
 20
-16.388929
 42
-0.414214
 10
766.797216
 20
-16.131561
 10
789.61424
 20
-16.131561
 42
-0.414214
 10
789.871608
 20
-16.388929
 10
789.871608
 20
-43.481564
  0
TEXT
  5
12FF
100
AcDbEntity
  8
BORDER
 62
     6
100
AcDbText
 10
772.814497
 20
-45.659904
 30
0.0
 40
0.122692
  1
Highway 25 North P.O. Box 420
  7
ROMANC
100
AcDbText
  0
LINE
  5
1300
100
AcDbEntity
  8
BORDER
100
AcDbLine
 10
772.008927
 20
-46.177996
 30
0.0
 11
779.597945
 21
-46.177996
 31
0.0
  0
LINE
  5
1301
100
AcDbEntity
  8
BORDER
100
AcDbLine
 10
772.330638
 20
-43.926022
 30
0.0
 11
779.597945
 21
-43.926022
 31
0.0
  0
LINE
  5
1302
100
AcDbEntity
  8
BORDER
100
AcDbLine
 10
772.008927
 20
-45.212865
 30
0.0
 11
779.597945
 21
-45.212865
 31
0.0
  0
LINE
  5
1303
100
AcDbEntity
  8
BORDER
100
AcDbLine
 10
772.008927
 20
-45.443966
 30
0.0
 11
779.597945
 21
-45.443966
 31
0.0
  0
LINE
  5
1304
100
AcDbEntity
  8
BORDER
100
AcDbLine
 10
772.008927
 20
-44.668976
 30
0.0
 11
776.912576
 21
-44.668976
 31
0.0
  0
TEXT
  5
1305
100
AcDbEntity
  8
BORDER
 62
     6
100
AcDbText
 10
772.235096
 20
-46.124554
 30
0.0
 40
0.122692
  1
Phone: 800/354-4534  Fax: 574/223-6106
  7
ROMANC
100
AcDbText
  0
LINE
  5
1306
100
AcDbEntity
  8
LIMITS
 62
     7
100
AcDbLine
 10
766.02511
 20
-47.143128
 30
0.0
 11
790.386345
 21
-47.143128
 31
0.0
  0
LWPOLYLINE
  5
1307
100
AcDbEntity
  8
BORDER
 62
     5
100
AcDbPolyline
 90
        2
 70
     0
 43
0.160855
 10
789.228187
 20
-46.499707
 10
767.183268
 20
-46.499707
  0
LWPOLYLINE
  5
1308
100
AcDbEntity
  8
BORDER
 62
     5
100
AcDbPolyline
 90
        2
 70
     0
 43
0.160855
 10
772.330638
 20
-43.604312
 10
784.080818
 20
-43.604312
  0
HATCH
  5
1309
100
AcDbEntity
  8
BORDER
100
AcDbHatch
 10
0.0
 20
0.0
 30
0.0
210
0.0
220
0.0
230
1.0
  2
ANSI37
 70
     0
 71
     1
 91
        1
 92
        7
 72
     1
 73
     1
 93
       18
 10
768.0194936842229
 20
-45.25240008671862
 42
-0.4142135623730063
 10
767.8552995400239
 20
-45.41659423091766
 42
0.0
 10
767.8024214285033
 20
-45.41659423091765
 42
0.0
 10
767.8024214285035
 20
-45.45084300400139
 42
0.0
 10
768.5203370735928
 20
-45.45084300400138
 42
0.0
 10
768.5203370735928
 20
-45.41659423091766
 42
0.0
 10
768.4674589620722
 20
-45.41659423091766
 42
-0.4142135623732979
 10
768.303264817873
 20
-45.25240008671857
 42
0.0
 10
768.303264817873
 20
-44.34873786868683
 42
0.0
 10
768.4477858021382
 20
-44.34873786868682
 42
-0.4138200196737574
 10
768.7754919252697
 20
-44.67600390752408
 42
0.0
 10
768.8097667478853
 20
-44.67600390752408
 42
0.0
 10
768.8097667478857
 20
-44.26501863052005
 42
0.0
 10
767.5129917542108
 20
-44.26501863052005
 42
0.0
 10
767.5129917542108
 20
-44.67600390752408
 42
0.0
 10
767.5472665768266
 20
-44.67600390752408
 42
-0.4138200196737575
 10
767.874972699958
 20
-44.34873786868682
 42
0.0
 10
768.0194936842229
 20
-44.34873786868682
 42
0.0
 97
       18
330
134B
330
1349
330
1357
330
134E
330
1311
330
131C
330
131D
330
130A
330
134A
330
132B
330
1335
330
1337
330
1338
330
1334
330
1339
330
133D
330
133E
330
132A
 75
     0
 76
     1
 52
0.0
 41
0.004984
 77
     0
 78
     2
 53
45.0
 43
766.345599
 44
-63.445684
 45
-0.0004405651088503
 46
0.0004405651088503
 79
     0
 53
135.0
 43
766.345599
 44
-63.445684
 45
-0.0004405651088503
 46
-0.0004405651088503
 79
     0
 47
0.049862
 98
        1
 10
768.126555
 20
-44.818099
  0
ARC
  5
130A
102
{ACAD_REACTORS
330
1309
102
}
100
AcDbEntity
  8
BORDER
100
AcDbCircle
 10
767.874973
 20
-44.676444
 30
0.0
 40
0.327706
100
AcDbArc
 50
90.0
 51
179.923004
  0
LINE
  5
130B
100
AcDbEntity
  8
BORDER
100
AcDbLine
 10
767.805275
 20
-45.845206
 30
0.0
 11
767.602538
 21
-45.580606
 31
0.0
  0
LINE
  5
130C
100
AcDbEntity
  8
BORDER
100
AcDbLine
 10
767.183268
 20
-46.177996
 30
0.0
 11
771.043795
 21
-46.177996
 31
0.0
  0
LINE
  5
130D
100
AcDbEntity
  8
BORDER
100
AcDbLine
 10
767.183268
 20
-43.926022
 30
0.0
 11
770.722085
 21
-43.926022
 31
0.0
  0
LWPOLYLINE
  5
130E
100
AcDbEntity
  8
BORDER
 62
     5
100
AcDbPolyline
 90
        2
 70
     0
 43
0.160855
 10
767.183268
 20
-43.604312
 10
770.722085
 20
-43.604312
  0
LINE
  5
130F
100
AcDbEntity
  8
BORDER
100
AcDbLine
 10
767.344802
 20
-45.495483
 30
0.0
 11
770.578588
 21
-45.495483
 31
0.0
  0
LINE
  5
1310
100
AcDbEntity
  8
BORDER
100
AcDbLine
 10
767.344802
 20
-45.495483
 30
0.0
 11
770.578588
 21
-45.495483
 31
0.0
  0
LINE
  5
1311
102
{ACAD_REACTORS
330
1309
102
}
100
AcDbEntity
  8
BORDER
100
AcDbLine
 10
767.512992
 20
-44.265019
 30
0.0
 11
768.809767
 21
-44.265019
 31
0.0
  0
LWPOLYLINE
  5
1312
100
AcDbEntity
  8
BORDER
 62
     5
100
AcDbPolyline
 90
        2
 70
     0
 43
0.160855
 10
767.183268
 20
-46.499707
 42
-0.414214
 10
766.539847
 20
-45.856286
 42
0.560527
  0
LWPOLYLINE
  5
1313
100
AcDbEntity
  8
BORDER
 62
     5
100
AcDbPolyline
 90
        2
 70
     0
 43
0.160855
 10
767.183268
 20
-43.604312
 42
0.414214
 10
766.539847
 20
-44.247733
 42
-0.560527
  0
ARC
  5
1314
100
AcDbEntity
  8
BORDER
100
AcDbCircle
 10
767.183268
 20
-44.247733
 30
0.0
 40
0.321711
100
AcDbArc
 50
90.0
 51
180.0
  0
LWPOLYLINE
  5
1315
100
AcDbEntity
  8
BORDER
 62
     5
100
AcDbPolyline
 90
        2
 70
     0
 43
0.160855
 10
766.539847
 20
-44.247733
 10
766.539847
 20
-45.856286
  0
LINE
  5
1316
100
AcDbEntity
  8
BORDER
100
AcDbLine
 10
766.861558
 20
-45.856286
 30
0.0
 11
766.861558
 21
-44.247733
 31
0.0
  0
LINE
  5
1317
100
AcDbEntity
  8
BORDER
100
AcDbLine
 10
767.602538
 20
-45.580606
 30
0.0
 11
767.602538
 21
-45.845206
 31
0.0
  0
LINE
  5
1318
100
AcDbEntity
  8
BORDER
100
AcDbLine
 10
767.486688
 20
-45.580606
 30
0.0
 11
767.486688
 21
-45.845206
 31
0.0
  0
ARC
  5
1319
100
AcDbEntity
  8
BORDER
100
AcDbCircle
 10
767.183268
 20
-45.856286
 30
0.0
 40
0.321711
100
AcDbArc
 50
180.0
 51
270.0
  0
LINE
  5
131A
100
AcDbEntity
  8
BORDER
100
AcDbLine
 10
767.432507
 20
-45.845206
 30
0.0
 11
767.540869
 21
-45.845206
 31
0.0
  0
LINE
  5
131B
100
AcDbEntity
  8
BORDER
100
AcDbLine
 10
767.432507
 20
-45.580606
 30
0.0
 11
767.540869
 21
-45.580606
 31
0.0
  0
LINE
  5
131C
102
{ACAD_REACTORS
330
1309
102
}
100
AcDbEntity
  8
BORDER
100
AcDbLine
 10
767.512992
 20
-44.676004
 30
0.0
 11
767.512992
 21
-44.265019
 31
0.0
  0
LINE
  5
131D
102
{ACAD_REACTORS
330
1309
102
}
100
AcDbEntity
  8
BORDER
100
AcDbLine
 10
767.512992
 20
-44.676004
 30
0.0
 11
767.547266
 21
-44.676004
 31
0.0
  0
LWPOLYLINE
  5
131E
100
AcDbEntity
  8
BORDER
 62
     5
100
AcDbPolyline
 90
        2
 70
     0
 43
0.160855
 10
772.330638
 20
-43.604312
 42
0.414214
 10
771.687217
 20
-44.247733
 42
-0.560527
  0
LWPOLYLINE
  5
131F
100
AcDbEntity
  8
BORDER
 62
     5
100
AcDbPolyline
 90
        2
 70
     0
 43
0.160855
 10
770.722085
 20
-43.604312
 42
-0.414214
 10
771.365506
 20
-44.247733
 42
0.560527
  0
ARC
  5
1320
100
AcDbEntity
  8
BORDER
100
AcDbCircle
 10
770.722085
 20
-44.247733
 30
0.0
 40
0.321711
100
AcDbArc
 50
0.0
 51
90.0
  0
HATCH
  5
1321
100
AcDbEntity
  8
BORDER
100
AcDbHatch
 10
0.0
 20
0.0
 30
0.0
210
0.0
220
0.0
230
1.0
  2
ANSI37
 70
     0
 71
     1
 91
        2
 92
        7
 72
     1
 73
     1
 93
       16
 10
769.5294212470392
 20
-45.35713601546587
 42
-0.4142135623730019
 10
769.4616434317013
 20
-45.42491383080393
 42
0.0
 10
769.4302778930095
 20
-45.42491383080392
 42
0.0
 10
769.4302778930095
 20
-45.44277871559265
 42
0.0
 10
769.7244572821795
 20
-45.44277871559265
 42
0.0
 10
769.7244572821796
 20
-45.42491383080394
 42
0.0
 10
769.6930917434877
 20
-45.42491383080393
 42
-0.4142135623729109
 10
769.6253139281497
 20
-45.35713601546589
 42
0.0
 10
769.6253139281497
 20
-45.11958741809253
 42
0.0609117558023489
 10
769.7439608856933
 20
-45.1342040680143
 42
0.4291497434373011
 10
769.9536246234689
 20
-44.94581112599602
 42
0.3916311771392028
 10
769.7483664331749
 20
-44.75361184527566
 42
0.0
 10
769.4307875195351
 20
-44.75361184527566
 42
0.0
 10
769.4307875195351
 20
-44.77252897420658
 42
0.0
 10
769.4616434317013
 20
-44.77252897420658
 42
-0.4142135623729106
 10
769.5294212470392
 20
-44.84030678954461
 42
0.0
 97
        1
330
1325
 92
       22
 72
     1
 73
     1
 93
        3
 10
769.6253139281497
 20
-44.80451647255765
 42
-0.5287425889473859
 10
769.8382282303442
 20
-44.953931509674
 42
-0.5439228899217624
 10
769.6253139281497
 20
-45.09360214962631
 42
0.0
 97
        1
330
1323
 75
     0
 76
     1
 52
0.0
 41
0.004984
 77
     0
 78
     2
 53
45.0
 43
766.345599
 44
-63.445684
 45
-0.0004405651088503
 46
0.0004405651088503
 79
     0
 53
135.0
 43
766.345599
 44
-63.445684
 45
-0.0004405651088503
 46
-0.0004405651088503
 79
     0
 47
0.027301
 98
        2
 10
769.567908
 20
-44.929069
 10
769.567908
 20
-44.929069
  0
LINE
  5
1322
100
AcDbEntity
  8
BORDER
100
AcDbLine
 10
769.747434
 20
-44.391019
 30
0.0
 11
769.906136
 21
-44.391019
 31
0.0
  0
LWPOLYLINE
  5
1323
102
{ACAD_REACTORS
330
1321
102
}
100
AcDbEntity
  8
BORDER
100
AcDbPolyline
 90
        3
 70
     1
 43
0.0
 10
769.625314
 20
-45.093602
 42
0.543923
 10
769.838228
 20
-44.953932
 42
0.528743
 10
769.625314
 20
-44.804516
  0
LINE
  5
1324
100
AcDbEntity
  8
BORDER
100
AcDbLine
 10
769.77026
 20
-45.580606
 30
0.0
 11
769.99447
 21
-45.580606
 31
0.0
  0
LWPOLYLINE
  5
1325
102
{ACAD_REACTORS
330
1321
102
}
100
AcDbEntity
  8
BORDER
100
AcDbPolyline
 90
       17
 70
     0
 43
0.0
 10
769.743961
 20
-45.134204
 42
-0.060912
 10
769.625314
 20
-45.119587
 10
769.625314
 20
-45.357136
 42
0.414214
 10
769.693092
 20
-45.424914
 10
769.724457
 20
-45.424914
 10
769.724457
 20
-45.442779
 10
769.430278
 20
-45.442779
 10
769.430278
 20
-45.424914
 10
769.461643
 20
-45.424914
 42
0.414214
 10
769.529421
 20
-45.357136
 10
769.529421
 20
-44.840307
 42
0.414214
 10
769.461643
 20
-44.772529
 10
769.430788
 20
-44.772529
 10
769.430788
 20
-44.753612
 10
769.745877
 20
-44.753612
 42
-0.395102
 10
769.953625
 20
-44.945811
 42
-0.42915
 10
769.743961
 20
-45.134204
  0
LINE
  5
1326
100
AcDbEntity
  8
BORDER
100
AcDbLine
 10
768.853839
 20
-44.673145
 30
0.0
 11
770.502501
 21
-44.673145
 31
0.0
  0
HATCH
  5
1327
100
AcDbEntity
  8
BORDER
100
AcDbHatch
 10
0.0
 20
0.0
 30
0.0
210
0.0
220
0.0
230
1.0
  2
ANSI37
 70
     0
 71
     1
 91
        2
 92
        5
 93
        1
 72
     3
 10
769.036881
 20
-45.099824
 11
0.0
 21
0.359349
 40
0.93822
 50
0.0
 51
360.0
 73
     1
 97
        1
330
1328
 92
       20
 93
        1
 72
     3
 10
769.036881
 20
-45.097777
 11
0.0
 21
0.322492
 40
0.683214
 50
0.0
 51
360.0
 73
     1
 97
        1
330
1329
 75
     0
 76
     1
 52
0.0
 41
0.004984
 77
     0
 78
     2
 53
45.0
 43
766.345599
 44
-63.445684
 45
-0.0004405651088503
 46
0.0004405651088503
 79
     0
 53
135.0
 43
766.345599
 44
-63.445684
 45
-0.0004405651088503
 46
-0.0004405651088503
 79
     0
 47
0.027301
 98
        2
 10
768.794396
 20
-44.953563
 10
768.794396
 20
-44.953563
  0
ELLIPSE
  5
1328
102
{ACAD_REACTORS
330
1327
102
}
100
AcDbEntity
  8
BORDER
100
AcDbEllipse
 10
769.036881
 20
-45.099824
 30
0.0
 11
0.0000000000000024
 21
0.3593485984915646
 31
0.0
210
0.0
220
0.0
230
1.0
 40
0.93822
 41
0.0
 42
6.283185307179586
  0
ELLIPSE
  5
1329
102
{ACAD_REACTORS
330
1327
102
}
100
AcDbEntity
  8
BORDER
100
AcDbEllipse
 10
769.036881
 20
-45.097777
 30
0.0
 11
0.0000000000000024
 21
0.3224923450238102
 31
0.0
210
0.0
220
0.0
230
1.0
 40
0.683214
 41
0.0
 42
6.283185307179586
  0
LINE
  5
132A
102
{ACAD_REACTORS
330
1309
102
}
100
AcDbEntity
  8
BORDER
100
AcDbLine
 10
768.303265
 20
-45.2524
 30
0.0
 11
768.303265
 21
-44.348738
 31
0.0
  0
LINE
  5
132B
102
{ACAD_REACTORS
330
1309
102
}
100
AcDbEntity
  8
BORDER
100
AcDbLine
 10
768.019494
 20
-45.2524
 30
0.0
 11
768.019494
 21
-44.348738
 31
0.0
  0
LINE
  5
132C
100
AcDbEntity
  8
BORDER
100
AcDbLine
 10
768.741762
 20
-45.716279
 30
0.0
 11
768.810437
 21
-45.716279
 31
0.0
  0
LINE
  5
132D
100
AcDbEntity
  8
BORDER
100
AcDbLine
 10
768.810437
 20
-45.580606
 30
0.0
 11
768.741762
 21
-45.580606
 31
0.0
  0
LINE
  5
132E
100
AcDbEntity
  8
BORDER
100
AcDbLine
 10
768.741762
 20
-45.580606
 30
0.0
 11
768.741762
 21
-45.845206
 31
0.0
  0
LINE
  5
132F
100
AcDbEntity
  8
BORDER
100
AcDbLine
 10
768.534668
 20
-45.716279
 30
0.0
 11
768.639714
 21
-45.845206
 31
0.0
  0
LINE
  5
1330
100
AcDbEntity
  8
BORDER
100
AcDbLine
 10
768.462244
 20
-45.580606
 30
0.0
 11
768.462244
 21
-45.845206
 31
0.0
  0
LINE
  5
1331
100
AcDbEntity
  8
BORDER
100
AcDbLine
 10
767.805275
 20
-45.580606
 30
0.0
 11
767.805275
 21
-45.845206
 31
0.0
  0
ARC
  5
1332
100
AcDbEntity
  8
BORDER
100
AcDbCircle
 10
767.988169
 20
-45.724035
 30
0.0
 40
0.121343
100
AcDbArc
 50
174.737783
 51
327.723969
  0
SPLINE
  5
1333
100
AcDbEntity
  8
BORDER
100
AcDbSpline
210
0.0
220
0.0
230
1.0
 70
    11
 71
     3
 72
    24
 73
    20
 74
     0
 42
0.0000001
 43
0.0000001
 40
0.0
 40
0.0
 40
0.0
 40
0.0
 40
0.474866629778075
 40
0.474866629778075
 40
1.277791044886493
 40
1.277791044886493
 40
2.080715459994911
 40
2.080715459994911
 40
2.883639875103329
 40
2.883639875103329
 40
3.686564290211747
 40
3.686564290211747
 40
4.489488705320165
 40
4.489488705320165
 40
5.292413120428583
 40
5.292413120428583
 40
6.095337535537001
 40
6.095337535537001
 40
6.283185307179586
 40
6.283185307179586
 40
6.283185307179586
 40
6.283185307179586
 10
768.2642755641967
 20
-45.57701680592431
 30
0.0
 10
768.2428302140468
 20
-45.57701680592431
 30
0.0
 10
768.2214029283573
 20
-45.58221873574865
 30
0.0
 10
768.1700845513443
 20
-45.60868531041812
 30
0.0
 10
768.1450482169656
 20
-45.63884258990877
 30
0.0
 10
768.1241066334692
 20
-45.70847715139349
 30
0.0
 10
768.1283406065655
 20
-45.74748789310553
 30
0.0
 10
768.1637320004547
 20
-45.81097184787615
 30
0.0
 10
768.1946535795218
 20
-45.83501871793683
 30
0.0
 10
768.2647743958685
 20
-45.85357737148339
 30
0.0
 10
768.3035012521378
 20
-45.84796314817883
 30
0.0
 10
768.3655131340637
 20
-45.81025191048705
 30
0.0
 10
768.3883817503904
 20
-45.77841011323563
 30
0.0
 10
768.4044094329155
 20
-45.70747565311756
 30
0.0
 10
768.3974620008629
 20
-45.66885798930489
 30
0.0
 10
768.3577240742177
 20
-45.608015967267
 30
0.0
 10
768.3251986379994
 20
-45.58620060111368
 30
0.0
 10
768.2812420935105
 20
-45.57781846634735
 30
0.0
 10
768.2727589171744
 20
-45.57701680592431
 30
0.0
 10
768.2642755641967
 20
-45.57701680592431
 30
0.0
  0
LINE
  5
1334
102
{ACAD_REACTORS
330
1309
102
}
100
AcDbEntity
  8
BORDER
100
AcDbLine
 10
767.802421
 20
-45.450843
 30
0.0
 11
768.520337
 21
-45.450843
 31
0.0
  0
ARC
  5
1335
102
{ACAD_REACTORS
330
1309
102
}
100
AcDbEntity
  8
BORDER
100
AcDbCircle
 10
767.8553
 20
-45.2524
 30
0.0
 40
0.164194
100
AcDbArc
 50
270.0
 51
0.0
  0
ARC
  5
1336
100
AcDbEntity
  8
BORDER
100
AcDbCircle
 10
767.997575
 20
-45.710826
 30
0.0
 40
0.130254
100
AcDbArc
 50
44.321228
 51
180.91508
  0
LINE
  5
1337
102
{ACAD_REACTORS
330
1309
102
}
100
AcDbEntity
  8
BORDER
100
AcDbLine
 10
767.802421
 20
-45.416594
 30
0.0
 11
767.8553
 21
-45.416594
 31
0.0
  0
LINE
  5
1338
102
{ACAD_REACTORS
330
1309
102
}
100
AcDbEntity
  8
BORDER
100
AcDbLine
 10
767.802421
 20
-45.416594
 30
0.0
 11
767.802421
 21
-45.450843
 31
0.0
  0
LINE
  5
1339
102
{ACAD_REACTORS
330
1309
102
}
100
AcDbEntity
  8
BORDER
100
AcDbLine
 10
768.520337
 20
-45.416594
 30
0.0
 11
768.520337
 21
-45.450843
 31
0.0
  0
ARC
  5
133A
100
AcDbEntity
  8
BORDER
100
AcDbCircle
 10
768.553718
 20
-45.648442
 30
0.0
 40
0.067837
100
AcDbArc
 50
270.0
 51
90.0
  0
LINE
  5
133B
100
AcDbEntity
  8
BORDER
100
AcDbLine
 10
768.462244
 20
-45.716279
 30
0.0
 11
768.553718
 21
-45.716279
 31
0.0
  0
LINE
  5
133C
100
AcDbEntity
  8
BORDER
100
AcDbLine
 10
768.553718
 20
-45.580606
 30
0.0
 11
768.462244
 21
-45.580606
 31
0.0
  0
LINE
  5
133D
102
{ACAD_REACTORS
330
1309
102
}
100
AcDbEntity
  8
BORDER
100
AcDbLine
 10
768.520337
 20
-45.416594
 30
0.0
 11
768.467459
 21
-45.416594
 31
0.0
  0
ARC
  5
133E
102
{ACAD_REACTORS
330
1309
102
}
100
AcDbEntity
  8
BORDER
100
AcDbCircle
 10
768.467459
 20
-45.2524
 30
0.0
 40
0.164194
100
AcDbArc
 50
180.0
 51
270.0
  0
LINE
  5
133F
100
AcDbEntity
  8
BORDER
100
AcDbLine
 10
769.716448
 20
-45.845206
 30
0.0
 11
769.611508
 21
-45.580606
 31
0.0
  0
LINE
  5
1340
100
AcDbEntity
  8
BORDER
100
AcDbLine
 10
769.332493
 20
-45.716279
 30
0.0
 11
769.437539
 21
-45.845206
 31
0.0
  0
LINE
  5
1341
100
AcDbEntity
  8
BORDER
100
AcDbLine
 10
769.611508
 20
-45.580606
 30
0.0
 11
769.510162
 21
-45.845206
 31
0.0
  0
LINE
  5
1342
100
AcDbEntity
  8
BORDER
100
AcDbLine
 10
769.260069
 20
-45.580606
 30
0.0
 11
769.260069
 21
-45.845206
 31
0.0
  0
SPLINE
  5
1343
100
AcDbEntity
  8
BORDER
100
AcDbSpline
210
0.0
220
0.0
230
1.0
 70
    11
 71
     3
 72
    24
 73
    20
 74
     0
 42
0.0000001
 43
0.0000001
 40
0.0
 40
0.0
 40
0.0
 40
0.0
 40
0.474866629778075
 40
0.474866629778075
 40
1.277791044886493
 40
1.277791044886493
 40
2.080715459994911
 40
2.080715459994911
 40
2.883639875103329
 40
2.883639875103329
 40
3.686564290211747
 40
3.686564290211747
 40
4.489488705320165
 40
4.489488705320165
 40
5.292413120428583
 40
5.292413120428583
 40
6.095337535537001
 40
6.095337535537001
 40
6.283185307179586
 40
6.283185307179586
 40
6.283185307179586
 40
6.283185307179586
 10
769.051581260422
 20
-45.57701680592431
 30
0.0
 10
769.0301359102721
 20
-45.57701680592431
 30
0.0
 10
769.0087086245827
 20
-45.58221873574865
 30
0.0
 10
768.9573902475696
 20
-45.60868531041812
 30
0.0
 10
768.9323539131909
 20
-45.63884258990877
 30
0.0
 10
768.9114123296946
 20
-45.70847715139349
 30
0.0
 10
768.9156463027908
 20
-45.74748789310553
 30
0.0
 10
768.95103769668
 20
-45.81097184787615
 30
0.0
 10
768.9819592757473
 20
-45.83501871793683
 30
0.0
 10
769.0520800920938
 20
-45.85357737148339
 30
0.0
 10
769.0908069483631
 20
-45.84796314817883
 30
0.0
 10
769.1528188302892
 20
-45.81025191048705
 30
0.0
 10
769.1756874466158
 20
-45.77841011323563
 30
0.0
 10
769.191715129141
 20
-45.70747565311756
 30
0.0
 10
769.1847676970883
 20
-45.66885798930489
 30
0.0
 10
769.1450297704432
 20
-45.608015967267
 30
0.0
 10
769.1125043342248
 20
-45.58620060111368
 30
0.0
 10
769.0685477897358
 20
-45.57781846634735
 30
0.0
 10
769.0600646133997
 20
-45.57701680592431
 30
0.0
 10
769.051581260422
 20
-45.57701680592431
 30
0.0
  0
LINE
  5
1344
100
AcDbEntity
  8
BORDER
100
AcDbLine
 10
769.351543
 20
-45.580606
 30
0.0
 11
769.260069
 21
-45.580606
 31
0.0
  0
LINE
  5
1345
100
AcDbEntity
  8
BORDER
100
AcDbLine
 10
769.260069
 20
-45.716279
 30
0.0
 11
769.351543
 21
-45.716279
 31
0.0
  0
ARC
  5
1346
100
AcDbEntity
  8
BORDER
100
AcDbCircle
 10
768.810437
 20
-45.648442
 30
0.0
 40
0.067837
100
AcDbArc
 50
270.0
 51
90.0
  0
LINE
  5
1347
100
AcDbEntity
  8
BORDER
100
AcDbLine
 10
769.547115
 20
-45.748726
 30
0.0
 11
769.678184
 21
-45.748726
 31
0.0
  0
ARC
  5
1348
100
AcDbEntity
  8
BORDER
100
AcDbCircle
 10
769.351543
 20
-45.648442
 30
0.0
 40
0.067837
100
AcDbArc
 50
270.0
 51
90.0
  0
ARC
  5
1349
102
{ACAD_REACTORS
330
1309
102
}
100
AcDbEntity
  8
BORDER
100
AcDbCircle
 10
768.447786
 20
-44.676444
 30
0.0
 40
0.327706
100
AcDbArc
 50
0.076996
 51
90.0
  0
LINE
  5
134A
102
{ACAD_REACTORS
330
1309
102
}
100
AcDbEntity
  8
BORDER
100
AcDbLine
 10
767.874973
 20
-44.348738
 30
0.0
 11
768.019494
 21
-44.348738
 31
0.0
  0
LINE
  5
134B
102
{ACAD_REACTORS
330
1309
102
}
100
AcDbEntity
  8
BORDER
100
AcDbLine
 10
768.447786
 20
-44.348738
 30
0.0
 11
768.303265
 21
-44.348738
 31
0.0
  0
ARC
  5
134C
100
AcDbEntity
  8
BORDER
100
AcDbCircle
 10
769.65813
 20
-44.522918
 30
0.0
 40
0.061153
100
AcDbArc
 50
200.502447
 51
334.026213
  0
ARC
  5
134D
100
AcDbEntity
  8
BORDER
100
AcDbCircle
 10
769.472796
 20
-44.519295
 30
0.0
 40
0.064872
100
AcDbArc
 50
180.0
 51
0.0
  0
LINE
  5
134E
102
{ACAD_REACTORS
330
1309
102
}
100
AcDbEntity
  8
BORDER
100
AcDbLine
 10
768.809767
 20
-44.676004
 30
0.0
 11
768.809767
 21
-44.265019
 31
0.0
  0
LINE
  5
134F
100
AcDbEntity
  8
BORDER
100
AcDbLine
 10
769.20139
 20
-44.391019
 30
0.0
 11
769.20139
 21
-44.584167
 31
0.0
  0
LINE
  5
1350
100
AcDbEntity
  8
BORDER
100
AcDbLine
 10
769.119307
 20
-44.391019
 30
0.0
 11
769.119307
 21
-44.584167
 31
0.0
  0
LINE
  5
1351
100
AcDbEntity
  8
BORDER
100
AcDbLine
 10
768.986914
 20
-44.386981
 30
0.0
 11
768.986914
 21
-44.584167
 31
0.0
  0
LINE
  5
1352
100
AcDbEntity
  8
BORDER
100
AcDbLine
 10
768.899535
 20
-44.391019
 30
0.0
 11
768.899535
 21
-44.584167
 31
0.0
  0
LINE
  5
1353
100
AcDbEntity
  8
BORDER
100
AcDbLine
 10
769.119307
 20
-44.584167
 30
0.0
 11
768.986914
 21
-44.386981
 31
0.0
  0
ARC
  5
1354
100
AcDbEntity
  8
BORDER
100
AcDbCircle
 10
769.242505
 20
-44.487593
 30
0.0
 40
0.096574
100
AcDbArc
 50
270.0
 51
90.0
  0
LINE
  5
1355
100
AcDbEntity
  8
BORDER
100
AcDbLine
 10
769.20139
 20
-44.584167
 30
0.0
 11
769.242505
 21
-44.584167
 31
0.0
  0
LINE
  5
1356
100
AcDbEntity
  8
BORDER
100
AcDbLine
 10
768.869801
 20
-44.584167
 30
0.0
 11
768.929269
 21
-44.584167
 31
0.0
  0
LINE
  5
1357
102
{ACAD_REACTORS
330
1309
102
}
100
AcDbEntity
  8
BORDER
100
AcDbLine
 10
768.809767
 20
-44.676004
 30
0.0
 11
768.775492
 21
-44.676004
 31
0.0
  0
LINE
  5
1358
100
AcDbEntity
  8
BORDER
100
AcDbLine
 10
769.242505
 20
-44.391019
 30
0.0
 11
769.20139
 21
-44.391019
 31
0.0
  0
LINE
  5
1359
100
AcDbEntity
  8
BORDER
100
AcDbLine
 10
768.899535
 20
-44.391019
 30
0.0
 11
768.929269
 21
-44.391019
 31
0.0
  0
LINE
  5
135A
100
AcDbEntity
  8
BORDER
100
AcDbLine
 10
768.869801
 20
-44.391019
 30
0.0
 11
768.899535
 21
-44.391019
 31
0.0
  0
ARC
  5
135B
100
AcDbEntity
  8
BORDER
100
AcDbCircle
 10
769.623402
 20
-44.432195
 30
0.0
 40
0.027275
100
AcDbArc
 50
140.101426
 51
236.383068
  0
ARC
  5
135C
100
AcDbEntity
  8
BORDER
100
AcDbCircle
 10
769.650354
 20
-44.450716
 30
0.0
 40
0.059911
100
AcDbArc
 50
25.379638
 51
143.047804
  0
ARC
  5
135D
100
AcDbEntity
  8
BORDER
100
AcDbCircle
 10
770.50224
 20
-43.110286
 30
0.0
 40
1.614662
100
AcDbArc
 50
236.383068
 51
240.315223
  0
ARC
  5
135E
100
AcDbEntity
  8
BORDER
100
AcDbCircle
 10
769.689107
 20
-44.536741
 30
0.0
 40
0.027275
100
AcDbArc
 50
331.630608
 51
60.315223
  0
LINE
  5
135F
100
AcDbEntity
  8
BORDER
100
AcDbLine
 10
769.407923
 20
-44.519295
 30
0.0
 11
769.407923
 21
-44.391019
 31
0.0
  0
LINE
  5
1360
100
AcDbEntity
  8
BORDER
100
AcDbLine
 10
769.537668
 20
-44.391019
 30
0.0
 11
769.537668
 21
-44.519295
 31
0.0
  0
HATCH
  5
1361
100
AcDbEntity
  8
BORDER
100
AcDbHatch
 10
0.0
 20
0.0
 30
0.0
210
0.0
220
0.0
230
1.0
  2
ANSI37
 70
     0
 71
     1
 91
        2
 92
        7
 72
     1
 73
     1
 93
       16
 10
770.1080883328606
 20
-45.35974685342668
 42
-0.4142135623728177
 10
770.0403105175227
 20
-45.42752466876461
 42
0.0
 10
770.008944978831
 20
-45.42752466876462
 42
0.0
 10
770.008944978831
 20
-45.4453895535532
 42
0.0
 10
770.3031243680007
 20
-45.44538955355319
 42
0.0
 10
770.3031243680007
 20
-45.42752466876462
 42
0.0
 10
770.2717588293092
 20
-45.42752466876461
 42
-0.4142135623735862
 10
770.203981013971
 20
-45.35974685342661
 42
0.0
 10
770.203981013971
 20
-45.12219825605309
 42
0.060911755802872
 10
770.3226279715157
 20
-45.13681490597488
 42
0.4291497434363308
 10
770.5322917092904
 20
-44.94842196395635
 42
0.3916311771485792
 10
770.3270335189893
 20
-44.75622268323621
 42
0.0
 10
770.0094546053565
 20
-44.75622268323621
 42
0.0
 10
770.0094546053565
 20
-44.77513981216726
 42
0.0
 10
770.0403105175227
 20
-44.77513981216726
 42
-0.4142135623730644
 10
770.1080883328606
 20
-44.84291762750525
 42
0.0
 97
       16
330
1388
330
137D
330
1383
330
1382
330
1384
330
1365
330
1373
330
1371
330
1372
330
136D
330
1375
330
136E
330
1374
330
1366
330
137E
330
1387
 92
       22
 72
     1
 73
     1
 93
        3
 10
770.203981013971
 20
-44.80712731051822
 42
-0.5287425889477367
 10
770.4168953161658
 20
-44.95654234763458
 42
-0.5439228899221972
 10
770.203981013971
 20
-45.09621298758694
 42
0.0
 97
        3
330
1380
330
137F
330
1385
 75
     0
 76
     1
 52
0.0
 41
0.004984
 77
     0
 78
     2
 53
45.0
 43
766.345599
 44
-63.445684
 45
-0.0004405651088503
 46
0.0004405651088503
 79
     0
 53
135.0
 43
766.345599
 44
-63.445684
 45
-0.0004405651088503
 46
-0.0004405651088503
 79
     0
 47
0.027301
 98
        2
 10
770.148042
 20
-44.988944
 10
770.148042
 20
-44.988944
  0
LWPOLYLINE
  5
1362
100
AcDbEntity
  8
BORDER
 62
     5
100
AcDbPolyline
 90
        2
 70
     0
 43
0.160855
 10
771.687217
 20
-44.247733
 10
771.687217
 20
-46.177996
  0
LWPOLYLINE
  5
1363
100
AcDbEntity
  8
BORDER
 62
     5
100
AcDbPolyline
 90
        2
 70
     0
 43
0.160855
 10
771.365506
 20
-46.177996
 10
771.365506
 20
-44.247733
  0
LINE
  5
1364
100
AcDbEntity
  8
BORDER
100
AcDbLine
 10
771.043795
 20
-46.177996
 30
0.0
 11
771.043795
 21
-44.247733
 31
0.0
  0
LINE
  5
1365
102
{ACAD_REACTORS
330
1361
102
}
100
AcDbEntity
  8
BORDER
100
AcDbLine
 10
770.108088
 20
-45.359747
 30
0.0
 11
770.108088
 21
-44.842918
 31
0.0
  0
LINE
  5
1366
102
{ACAD_REACTORS
330
1361
102
}
100
AcDbEntity
  8
BORDER
100
AcDbLine
 10
770.203981
 20
-45.122198
 30
0.0
 11
770.203981
 21
-45.359747
 31
0.0
  0
ARC
  5
1367
100
AcDbEntity
  8
BORDER
100
AcDbCircle
 10
770.397277
 20
-45.712906
 30
0.0
 40
0.1323
100
AcDbArc
 50
270.0
 51
90.0
  0
LINE
  5
1368
100
AcDbEntity
  8
BORDER
100
AcDbLine
 10
769.882365
 20
-45.580606
 30
0.0
 11
769.882365
 21
-45.845206
 31
0.0
  0
LINE
  5
1369
100
AcDbEntity
  8
BORDER
100
AcDbLine
 10
770.052959
 20
-45.845206
 30
0.0
 11
770.052959
 21
-45.580606
 31
0.0
  0
LINE
  5
136A
100
AcDbEntity
  8
BORDER
100
AcDbLine
 10
770.297413
 20
-45.580606
 30
0.0
 11
770.297413
 21
-45.845206
 31
0.0
  0
LINE
  5
136B
100
AcDbEntity
  8
BORDER
100
AcDbLine
 10
770.223672
 20
-45.845206
 30
0.0
 11
770.052959
 21
-45.845206
 31
0.0
  0
LINE
  5
136C
100
AcDbEntity
  8
BORDER
100
AcDbLine
 10
770.297413
 20
-45.845206
 30
0.0
 11
770.397277
 21
-45.845206
 31
0.0
  0
LINE
  5
136D
102
{ACAD_REACTORS
330
1361
102
}
100
AcDbEntity
  8
BORDER
100
AcDbLine
 10
770.008945
 20
-45.44539
 30
0.0
 11
770.303124
 21
-45.44539
 31
0.0
  0
LINE
  5
136E
102
{ACAD_REACTORS
330
1361
102
}
100
AcDbEntity
  8
BORDER
100
AcDbLine
 10
770.271759
 20
-45.427525
 30
0.0
 11
770.303124
 21
-45.427525
 31
0.0
  0
LINE
  5
136F
100
AcDbEntity
  8
BORDER
100
AcDbLine
 10
770.052959
 20
-45.712906
 30
0.0
 11
770.166485
 21
-45.712906
 31
0.0
  0
LINE
  5
1370
100
AcDbEntity
  8
BORDER
100
AcDbLine
 10
770.052959
 20
-45.580606
 30
0.0
 11
770.223672
 21
-45.580606
 31
0.0
  0
LINE
  5
1371
102
{ACAD_REACTORS
330
1361
102
}
100
AcDbEntity
  8
BORDER
100
AcDbLine
 10
770.008945
 20
-45.427525
 30
0.0
 11
770.040311
 21
-45.427525
 31
0.0
  0
LINE
  5
1372
102
{ACAD_REACTORS
330
1361
102
}
100
AcDbEntity
  8
BORDER
100
AcDbLine
 10
770.008945
 20
-45.427525
 30
0.0
 11
770.008945
 21
-45.44539
 31
0.0
  0
ARC
  5
1373
102
{ACAD_REACTORS
330
1361
102
}
100
AcDbEntity
  8
BORDER
100
AcDbCircle
 10
770.040311
 20
-45.359747
 30
0.0
 40
0.067778
100
AcDbArc
 50
270.0
 51
360.0
  0
ARC
  5
1374
102
{ACAD_REACTORS
330
1361
102
}
100
AcDbEntity
  8
BORDER
100
AcDbCircle
 10
770.271759
 20
-45.359747
 30
0.0
 40
0.067778
100
AcDbArc
 50
180.0
 51
270.0
  0
LINE
  5
1375
102
{ACAD_REACTORS
330
1361
102
}
100
AcDbEntity
  8
BORDER
100
AcDbLine
 10
770.303124
 20
-45.427525
 30
0.0
 11
770.303124
 21
-45.44539
 31
0.0
  0
LINE
  5
1376
100
AcDbEntity
  8
BORDER
100
AcDbLine
 10
770.397277
 20
-45.580606
 30
0.0
 11
770.297413
 21
-45.580606
 31
0.0
  0
ARC
  5
1377
100
AcDbEntity
  8
BORDER
100
AcDbCircle
 10
770.461552
 20
-44.522918
 30
0.0
 40
0.061153
100
AcDbArc
 50
200.502447
 51
334.026213
  0
LINE
  5
1378
100
AcDbEntity
  8
BORDER
100
AcDbLine
 10
769.826785
 20
-44.391019
 30
0.0
 11
769.826785
 21
-44.584167
 31
0.0
  0
LINE
  5
1379
100
AcDbEntity
  8
BORDER
100
AcDbLine
 10
769.947134
 20
-44.391019
 30
0.0
 11
769.947134
 21
-44.584167
 31
0.0
  0
LINE
  5
137A
100
AcDbEntity
  8
BORDER
100
AcDbLine
 10
770.003922
 20
-44.488524
 30
0.0
 11
770.06518
 21
-44.584167
 31
0.0
  0
LINE
  5
137B
100
AcDbEntity
  8
BORDER
100
AcDbLine
 10
770.244787
 20
-44.584167
 30
0.0
 11
770.244787
 21
-44.391019
 31
0.0
  0
LINE
  5
137C
100
AcDbEntity
  8
BORDER
100
AcDbLine
 10
770.155269
 20
-44.391019
 30
0.0
 11
770.155269
 21
-44.584167
 31
0.0
  0
LINE
  5
137D
102
{ACAD_REACTORS
330
1361
102
}
100
AcDbEntity
  8
BORDER
100
AcDbLine
 10
770.009455
 20
-44.756223
 30
0.0
 11
770.327034
 21
-44.756223
 31
0.0
  0
ARC
  5
137E
102
{ACAD_REACTORS
330
1361
102
}
100
AcDbEntity
  8
BORDER
100
AcDbCircle
 10
770.323073
 20
-44.644351
 30
0.0
 40
0.492464
100
AcDbArc
 50
256.005504
 51
269.948223
  0
ARC
  5
137F
102
{ACAD_REACTORS
330
1361
102
}
100
AcDbEntity
  8
BORDER
100
AcDbCircle
 10
770.265235
 20
-44.957469
 30
0.0
 40
0.151663
100
AcDbArc
 50
246.179097
 51
0.350223
  0
ARC
  5
1380
102
{ACAD_REACTORS
330
1361
102
}
100
AcDbEntity
  8
BORDER
100
AcDbCircle
 10
770.259542
 20
-44.954361
 30
0.0
 40
0.157368
100
AcDbArc
 50
359.205673
 51
110.674935
  0
LINE
  5
1381
100
AcDbEntity
  8
BORDER
100
AcDbLine
 10
770.36105
 20
-44.584167
 30
0.0
 11
770.244787
 21
-44.584167
 31
0.0
  0
LINE
  5
1382
102
{ACAD_REACTORS
330
1361
102
}
100
AcDbEntity
  8
BORDER
100
AcDbLine
 10
770.009455
 20
-44.77514
 30
0.0
 11
770.040311
 21
-44.77514
 31
0.0
  0
LINE
  5
1383
102
{ACAD_REACTORS
330
1361
102
}
100
AcDbEntity
  8
BORDER
100
AcDbLine
 10
770.009455
 20
-44.756223
 30
0.0
 11
770.009455
 21
-44.77514
 31
0.0
  0
ARC
  5
1384
102
{ACAD_REACTORS
330
1361
102
}
100
AcDbEntity
  8
BORDER
100
AcDbCircle
 10
770.040311
 20
-44.842918
 30
0.0
 40
0.067778
100
AcDbArc
 50
0.0
 51
90.0
  0
LINE
  5
1385
102
{ACAD_REACTORS
330
1361
102
}
100
AcDbEntity
  8
BORDER
100
AcDbLine
 10
770.203981
 20
-44.807127
 30
0.0
 11
770.203981
 21
-45.096213
 31
0.0
  0
LINE
  5
1386
100
AcDbEntity
  8
BORDER
100
AcDbLine
 10
770.125535
 20
-44.584167
 30
0.0
 11
770.185003
 21
-44.584167
 31
0.0
  0
ARC
  5
1387
102
{ACAD_REACTORS
330
1361
102
}
100
AcDbEntity
  8
BORDER
100
AcDbCircle
 10
770.337924
 20
-44.942974
 30
0.0
 40
0.194444
100
AcDbArc
 50
265.488062
 51
358.394374
  0
ARC
  5
1388
102
{ACAD_REACTORS
330
1361
102
}
100
AcDbEntity
  8
BORDER
100
AcDbCircle
 10
770.325789
 20
-44.963254
 30
0.0
 40
0.207035
100
AcDbArc
 50
4.10812
 51
90.34444
  0
LINE
  5
1389
100
AcDbEntity
  8
BORDER
100
AcDbLine
 10
770.244787
 20
-44.487593
 30
0.0
 11
770.3357
 21
-44.487593
 31
0.0
  0
LINE
  5
138A
100
AcDbEntity
  8
BORDER
100
AcDbLine
 10
770.244787
 20
-44.391019
 30
0.0
 11
770.36105
 21
-44.391019
 31
0.0
  0
LINE
  5
138B
100
AcDbEntity
  8
BORDER
100
AcDbLine
 10
770.125535
 20
-44.391019
 30
0.0
 11
770.185003
 21
-44.391019
 31
0.0
  0
LINE
  5
138C
100
AcDbEntity
  8
BORDER
100
AcDbLine
 10
769.947134
 20
-44.488524
 30
0.0
 11
770.017389
 21
-44.488524
 31
0.0
  0
LINE
  5
138D
100
AcDbEntity
  8
BORDER
100
AcDbLine
 10
770.017389
 20
-44.391019
 30
0.0
 11
769.947134
 21
-44.391019
 31
0.0
  0
ARC
  5
138E
100
AcDbEntity
  8
BORDER
100
AcDbCircle
 10
770.017389
 20
-44.439772
 30
0.0
 40
0.048752
100
AcDbArc
 50
270.0
 51
90.0
  0
ARC
  5
138F
100
AcDbEntity
  8
BORDER
100
AcDbCircle
 10
770.453777
 20
-44.450716
 30
0.0
 40
0.059911
100
AcDbArc
 50
25.379638
 51
143.047804
  0
ARC
  5
1390
100
AcDbEntity
  8
BORDER
100
AcDbCircle
 10
771.305662
 20
-43.110286
 30
0.0
 40
1.614662
100
AcDbArc
 50
236.383068
 51
240.315223
  0
ARC
  5
1391
100
AcDbEntity
  8
BORDER
100
AcDbCircle
 10
770.426825
 20
-44.432195
 30
0.0
 40
0.027275
100
AcDbArc
 50
140.101426
 51
236.383068
  0
ARC
  5
1392
100
AcDbEntity
  8
BORDER
100
AcDbCircle
 10
770.492529
 20
-44.536741
 30
0.0
 40
0.027275
100
AcDbArc
 50
331.630608
 51
60.315223
  0
ARC
  5
1393
100
AcDbEntity
  8
BORDER
100
AcDbCircle
 10
772.330638
 20
-44.247733
 30
0.0
 40
0.321711
100
AcDbArc
 50
90.0
 51
180.0
  0
TEXT
  5
1394
100
AcDbEntity
  8
BORDER
 62
     6
100
AcDbText
 10
773.342844
 20
-45.877795
 30
0.0
 40
0.122692
  1
Rochester, IN  46975
  7
ROMANC
100
AcDbText
  0
TEXT
  5
1395
100
AcDbEntity
  8
BORDER
 62
     6
100
AcDbText
 10
773.002345
 20
-44.385737
 30
0.0
 40
0.165995
  1
FLOAT BRACKETS
  7
ROMANC
100
AcDbText
  0
LINE
  5
1396
100
AcDbEntity
  8
BORDER
100
AcDbLine
 10
772.008927
 20
-45.212865
 30
0.0
 11
772.008927
 21
-44.247733
 31
0.0
  0
LINE
  5
1397
100
AcDbEntity
  8
BORDER
100
AcDbLine
 10
772.008927
 20
-46.177996
 30
0.0
 11
772.008927
 21
-45.443966
 31
0.0
  0
TEXT
  5
1398
100
AcDbEntity
  8
BORDER
 62
     6
100
AcDbText
 10
772.055542
 20
-44.8833
 30
0.0
 40
0.144344
  1
Reference:
  7
ROMANC
100
AcDbText
  0
TEXT
  5
1399
100
AcDbEntity
  8
BORDER
 62
     6
100
AcDbText
 10
774.334839
 20
-44.985637
 30
0.0
 40
0.144344
  1
-
  7
ROMANC
100
AcDbText
  0
LINE
  5
139A
100
AcDbEntity
  8
BORDER
100
AcDbLine
 10
780.773103
 20
-45.443966
 30
0.0
 11
784.402528
 21
-45.443966
 31
0.0
  0
LINE
  5
139B
100
AcDbEntity
  8
BORDER
100
AcDbLine
 10
780.773103
 20
-46.177996
 30
0.0
 11
784.402528
 21
-46.177996
 31
0.0
  0
ARC
  5
139C
100
AcDbEntity
  8
BORDER
100
AcDbCircle
 10
784.080818
 20
-44.247733
 30
0.0
 40
0.321711
100
AcDbArc
 50
0.0
 51
90.0
  0
LWPOLYLINE
  5
139D
100
AcDbEntity
  8
BORDER
 62
     5
100
AcDbPolyline
 90
        2
 70
     0
 43
0.160855
 10
784.080818
 20
-43.604312
 42
-0.414214
 10
784.724239
 20
-44.247733
 42
0.560527
  0
LINE
  5
139E
100
AcDbEntity
  8
BORDER
100
AcDbLine
 10
776.912576
 20
-45.212865
 30
0.0
 11
784.402528
 21
-45.212865
 31
0.0
  0
TEXT
  5
139F
100
AcDbEntity
  8
BORDER
 62
     6
100
AcDbText
 10
779.340333
 20
-44.147128
 30
0.0
 40
0.120748
  1
This print is and contains confidential proprietary information owned exclusively
 41
0.656934
  7
ROMANS
 72
     5
 11
784.315044
 21
-44.147128
 31
0.0
100
AcDbText
  0
TEXT
  5
13A0
100
AcDbEntity
  8
BORDER
 62
     6
100
AcDbText
 10
779.340333
 20
-44.342625
 30
0.0
 40
0.120748
  1
by TOPP INDUSTRIES, INC. It is furnished on a strictly confidential basis.  This
 41
0.659437
  7
ROMANS
 72
     5
 11
784.315044
 21
-44.342625
 31
0.0
100
AcDbText
  0
TEXT
  5
13A1
100
AcDbEntity
  8
BORDER
 62
     6
100
AcDbText
 10
779.340333
 20
-44.538121
 30
0.0
 40
0.120748
  1
restriction includes, but is not limited to the condition that this print will not only
 41
0.626489
  7
ROMANS
 72
     5
 11
784.315044
 21
-44.538121
 31
0.0
100
AcDbText
  0
TEXT
  5
13A2
100
AcDbEntity
  8
BORDER
 62
     6
100
AcDbText
 10
779.340333
 20
-44.733618
 30
0.0
 40
0.120748
  1
be used as a record or to identify or inspect parts or for other information purposes
 41
0.596266
  7
ROMANS
 72
     5
 11
784.315044
 21
-44.733618
 31
0.0
100
AcDbText
  0
TEXT
  5
13A3
100
AcDbEntity
  8
BORDER
 62
     6
100
AcDbText
 10
779.340333
 20
-44.929115
 30
0.0
 40
0.120748
  1
and will not be used to manufacture or procure the manufacture of the items shown
 41
0.600404
  7
ROMANS
 72
     5
 11
784.315044
 21
-44.929115
 31
0.0
100
AcDbText
  0
TEXT
  5
13A4
100
AcDbEntity
  8
BORDER
 62
     6
100
AcDbText
 10
779.340333
 20
-45.124611
 30
0.0
 40
0.120748
  1
in this print by any other source than TOPP INDUSTRIES, INC.
 41
0.839168
  7
ROMANS
 72
     5
 11
784.315044
 21
-45.124611
 31
0.0
100
AcDbText
  0
LINE
  5
13A5
100
AcDbEntity
  8
BORDER
100
AcDbLine
 10
776.912576
 20
-46.177996
 30
0.0
 11
780.542002
 21
-46.177996
 31
0.0
  0
LINE
  5
13A6
100
AcDbEntity
  8
BORDER
100
AcDbLine
 10
776.912576
 20
-45.443966
 30
0.0
 11
780.542002
 21
-45.443966
 31
0.0
  0
LINE
  5
13A7
100
AcDbEntity
  8
BORDER
100
AcDbLine
 10
776.912576
 20
-43.926022
 30
0.0
 11
784.080818
 21
-43.926022
 31
0.0
  0
TEXT
  5
13A8
100
AcDbEntity
  8
BORDER
 62
     6
100
AcDbText
 10
776.978515
 20
-44.482891
 30
0.0
 40
0.144344
  1
Drawn By:
  7
ROMANC
100
AcDbText
  0
TEXT
  5
13A9
100
AcDbEntity
  8
BORDER
 62
     6
100
AcDbText
 10
776.978515
 20
-44.826815
 30
0.0
 40
0.144344
  1
Appv'd By: .
  7
ROMANC
100
AcDbText
  0
TEXT
  5
13AA
100
AcDbEntity
  8
BORDER
 62
     6
100
AcDbText
 10
776.978515
 20
-44.138968
 30
0.0
 40
0.144344
  1
Scale: None
  7
ROMANC
100
AcDbText
  0
TEXT
  5
13AB
100
AcDbEntity
  8
BORDER
 62
     6
100
AcDbText
 10
776.986743
 20
-45.928831
 30
0.0
 40
0.144344
  1
Prior To:
  7
ROMANC
100
AcDbText
  0
TEXT
  5
13AC
100
AcDbEntity
  8
BORDER
 62
     6
100
AcDbText
 10
776.986743
 20
-45.695132
 30
0.0
 40
0.144344
  1
Supersedes Prints
  7
ROMANC
100
AcDbText
  0
TEXT
  5
13AD
100
AcDbEntity
  8
BORDER
 62
     6
100
AcDbText
 10
776.978515
 20
-45.170738
 30
0.0
 40
0.144344
  1
Date: 10/13/03
  7
ROMANC
100
AcDbText
  0
LINE
  5
13AE
100
AcDbEntity
  8
BORDER
100
AcDbLine
 10
776.912576
 20
-45.212865
 30
0.0
 11
776.912576
 21
-43.926022
 31
0.0
  0
LINE
  5
13AF
100
AcDbEntity
  8
BORDER
100
AcDbLine
 10
776.912576
 20
-46.177996
 30
0.0
 11
776.912576
 21
-45.443966
 31
0.0
  0
TEXT
  5
13B0
100
AcDbEntity
  8
BORDER
 62
     6
100
AcDbText
 10
778.539068
 20
-46.048741
 30
0.0
 40
0.184984
  1
10/13/03
  7
ROMAND
100
AcDbText
  0
TEXT
  5
13B1
100
AcDbEntity
  8
BORDER
 62
     6
100
AcDbText
 10
778.303193
 20
-44.498264
 30
0.0
 40
0.196872
  1
RM
  7
COUNTRYBLUEPRINT
100
AcDbText
  0
TEXT
  5
13B2
100
AcDbEntity
  8
BORDER
 62
     6
100
AcDbText
 10
780.849068
 20
-45.912836
 30
0.0
 40
0.144344
  1
No:
  7
ROMANC
100
AcDbText
  0
TEXT
  5
13B3
100
AcDbEntity
  8
BORDER
 62
     6
100
AcDbText
 10
780.849068
 20
-45.679137
 30
0.0
 40
0.144344
  1
Reference
  7
ROMANC
100
AcDbText
  0
LINE
  5
13B4
100
AcDbEntity
  8
BORDER
100
AcDbLine
 10
780.773103
 20
-45.443966
 30
0.0
 11
780.773103
 21
-46.177996
 31
0.0
  0
LINE
  5
13B5
100
AcDbEntity
  8
BORDER
100
AcDbLine
 10
780.542002
 20
-45.443966
 30
0.0
 11
780.542002
 21
-46.177996
 31
0.0
  0
TEXT
  5
13B6
100
AcDbEntity
  8
BORDER
 62
     6
100
AcDbText
 10
782.083654
 20
-46.013902
 30
0.0
 40
0.433032
  1
14933
  7
ROMANC
100
AcDbText
  0
LWPOLYLINE
  5
13B7
100
AcDbEntity
  8
BORDER
 62
     5
100
AcDbPolyline
 90
        2
 70
     0
 43
0.160855
 10
789.228187
 20
-46.499707
 42
0.414214
 10
789.871608
 20
-45.856286
 42
-0.560527
  0
TEXT
  5
13B8
100
AcDbEntity
  8
BORDER
 62
     6
100
AcDbText
 10
786.600751
 20
-44.35607
 30
0.0
 40
0.216516
  1
Revisions
  7
ROMANC
100
AcDbText
  0
LWPOLYLINE
  5
13B9
100
AcDbEntity
  8
BORDER
 62
     5
100
AcDbPolyline
 90
        2
 70
     0
 43
0.160855
 10
789.228187
 20
-43.604312
 10
785.689371
 20
-43.604312
  0
LINE
  5
13BA
100
AcDbEntity
  8
BORDER
100
AcDbLine
 10
789.228187
 20
-43.926022
 30
0.0
 11
785.689371
 21
-43.926022
 31
0.0
  0
LINE
  5
13BB
100
AcDbEntity
  8
BORDER
100
AcDbLine
 10
789.228187
 20
-44.500152
 30
0.0
 11
785.689371
 21
-44.500152
 31
0.0
  0
LINE
  5
13BC
100
AcDbEntity
  8
BORDER
100
AcDbLine
 10
789.228187
 20
-44.821863
 30
0.0
 11
785.689371
 21
-44.821863
 31
0.0
  0
LINE
  5
13BD
100
AcDbEntity
  8
BORDER
100
AcDbLine
 10
789.228187
 20
-45.143573
 30
0.0
 11
785.689371
 21
-45.143573
 31
0.0
  0
LINE
  5
13BE
100
AcDbEntity
  8
BORDER
100
AcDbLine
 10
789.228187
 20
-45.465284
 30
0.0
 11
785.689371
 21
-45.465284
 31
0.0
  0
LINE
  5
13BF
100
AcDbEntity
  8
BORDER
100
AcDbLine
 10
789.228187
 20
-45.786994
 30
0.0
 11
785.689371
 21
-45.786994
 31
0.0
  0
TEXT
  5
13C0
100
AcDbEntity
  8
BORDER
 62
     6
100
AcDbText
 10
786.038726
 20
-44.741161
 30
0.0
 40
0.160855
  1
First Released 10/13/03
  7
ROMAND
100
AcDbText
  0
LINE
  5
13C1
100
AcDbEntity
  8
BORDER
100
AcDbLine
 10
789.228187
 20
-46.177996
 30
0.0
 11
785.36766
 21
-46.177996
 31
0.0
  0
LWPOLYLINE
  5
13C2
100
AcDbEntity
  8
BORDER
 62
     5
100
AcDbPolyline
 90
        2
 70
     0
 43
0.160855
 10
785.689371
 20
-43.604312
 42
0.414214
 10
785.04595
 20
-44.247733
 42
-0.560527
  0
ARC
  5
13C3
100
AcDbEntity
  8
BORDER
100
AcDbCircle
 10
785.689371
 20
-44.247733
 30
0.0
 40
0.321711
100
AcDbArc
 50
90.0
 51
180.0
  0
LWPOLYLINE
  5
13C4
100
AcDbEntity
  8
BORDER
 62
     5
100
AcDbPolyline
 90
        2
 70
     0
 43
0.160855
 10
785.04595
 20
-46.177996
 10
785.04595
 20
-44.247733
  0
LINE
  5
13C5
100
AcDbEntity
  8
BORDER
100
AcDbLine
 10
785.36766
 20
-46.177996
 30
0.0
 11
785.36766
 21
-44.247733
 31
0.0
  0
LINE
  5
13C6
100
AcDbEntity
  8
BORDER
100
AcDbLine
 10
786.011081
 20
-44.500152
 30
0.0
 11
786.011081
 21
-45.786994
 31
0.0
  0
LINE
  5
13C7
100
AcDbEntity
  8
BORDER
100
AcDbLine
 10
785.689371
 20
-44.500152
 30
0.0
 11
785.689371
 21
-45.786994
 31
0.0
  0
LINE
  5
13C8
100
AcDbEntity
  8
BORDER
100
AcDbLine
 10
784.402528
 20
-44.247733
 30
0.0
 11
784.402528
 21
-45.212865
 31
0.0
  0
LWPOLYLINE
  5
13C9
100
AcDbEntity
  8
BORDER
 62
     5
100
AcDbPolyline
 90
        2
 70
     0
 43
0.160855
 10
784.724239
 20
-46.177996
 10
784.724239
 20
-44.247733
  0
LINE
  5
13CA
100
AcDbEntity
  8
BORDER
100
AcDbLine
 10
784.402528
 20
-45.443966
 30
0.0
 11
784.402528
 21
-46.177996
 31
0.0
  0
LWPOLYLINE
  5
13CB
100
AcDbEntity
  8
BORDER
100
AcDbPolyline
 90
        6
 70
     1
 43
0.0
 10
785.918718
 20
-44.780298
 10
785.987258
 20
-44.661582
 10
785.918718
 20
-44.542866
 10
785.781637
 20
-44.542866
 10
785.713096
 20
-44.661582
 10
785.781637
 20
-44.780298
  0
TEXT
  5
13CC
100
AcDbEntity
  8
BORDER
 62
     6
100
AcDbText
 10
785.773783
 20
-44.741161
 30
0.0
 40
0.160855
  1
1
  7
ROMAND
100
AcDbText
  0
LWPOLYLINE
  5
13CD
100
AcDbEntity
  8
BORDER
 62
     5
100
AcDbPolyline
 90
        2
 70
     0
 43
0.160855
 10
789.228187
 20
-43.604312
 42
-0.414214
 10
789.871608
 20
-44.247733
 42
0.560527
  0
ARC
  5
13CE
100
AcDbEntity
  8
BORDER
100
AcDbCircle
 10
789.228187
 20
-44.247733
 30
0.0
 40
0.321711
100
AcDbArc
 50
0.0
 51
90.0
  0
LWPOLYLINE
  5
13CF
100
AcDbEntity
  8
BORDER
 62
     5
100
AcDbPolyline
 90
        2
 70
     0
 43
0.160855
 10
789.871608
 20
-44.247733
 10
789.871608
 20
-45.856286
  0
LINE
  5
13D0
100
AcDbEntity
  8
BORDER
100
AcDbLine
 10
789.549898
 20
-45.856286
 30
0.0
 11
789.549898
 21
-44.247733
 31
0.0
  0
LINE
  5
13D1
100
AcDbEntity
  8
BORDER
100
AcDbLine
 10
789.228187
 20
-44.500152
 30
0.0
 11
789.228187
 21
-45.786994
 31
0.0
  0
ARC
  5
13D2
100
AcDbEntity
  8
BORDER
100
AcDbCircle
 10
789.228187
 20
-45.856286
 30
0.0
 40
0.321711
100
AcDbArc
 50
270.0
 51
0.0
  0
LINE
  5
13D3
100
AcDbEntity
  8
LIMITS
 62
     7
100
AcDbLine
 10
790.386345
 20
-15.616824
 30
0.0
 11
766.02511
 21
-15.616824
 31
0.0
  0
LINE
  5
13D4
100
AcDbEntity
  8
BORDER
 62
     5
100
AcDbLine
 10
789.61424
 20
-16.131561
 30
0.0
 11
766.797216
 21
-16.131561
 31
0.0
  0
LWPOLYLINE
  5
13D5
100
AcDbEntity
  8
BORDER
 62
     5
100
AcDbPolyline
 90
        2
 70
     0
 43
0.064342
 10
789.61424
 20
-16.131561
 10
766.797216
 20
-16.131561
  0
LINE
  5
162A
100
AcDbEntity
  8
OBJECT
100
AcDbLine
 10
774.870541
 20
-31.587392
 30
-2.005773
 11
774.11802
 21
-32.008021
 31
-1.410914
210
0.0
220
-0.8164965809277262
230
-0.5773502691896258
1001
ACAD
1000
DSTYLE
1002
{
1070
   270
1070
     7
1070
    40
1040
1.0
1002
}
  0
LINE
  5
162B
100
AcDbEntity
  8
OBJECT
100
AcDbLine
 10
774.297634
 20
-31.907624
 30
-1.552897
 11
776.205512
 21
-30.841197
 31
-3.061052
210
0.0
220
-0.8164965809277262
230
-0.5773502691896258
1001
ACAD
1000
DSTYLE
1002
{
1070
   270
1070
     7
1070
    40
1040
1.0
1002
}
  0
LINE
  5
162E
100
AcDbEntity
  8
OBJECT
100
AcDbLine
 10
776.238447
 20
-32.181567
 30
-2.153858
 11
774.584331
 21
-31.226563
 31
-2.153858
  0
POINT
  5
162F
100
AcDbEntity
  8
OBJECT
100
AcDbPoint
 10
773.674413
 20
-31.751904
 30
-1.410914
  0
LINE
  5
163B
100
AcDbEntity
  8
OBJECT
100
AcDbLine
 10
777.861406
 20
-40.756461
 30
0.610801
 11
780.263155
 21
-39.378309
 31
2.739456
  0
LINE
  5
163C
100
AcDbEntity
  8
OBJECT
100
AcDbLine
 10
774.703517
 20
-39.206191
 30
0.68297
 11
781.774585
 21
-35.123708
 31
-5.090533
210
0.0
220
0.816496580927726
230
0.5773502691896259
  0
LINE
  5
163D
100
AcDbEntity
  8
OBJECT
100
AcDbLine
 10
773.642857
 20
-38.593818
 30
-0.183056
 11
780.713924
 21
-34.511335
 31
-5.956558
210
0.0
220
0.816496580927726
230
0.5773502691896259
  0
LINE
  5
163E
100
AcDbEntity
  8
OBJECT
100
AcDbLine
 10
774.703517
 20
-39.308253
 30
0.610801
 11
781.774585
 21
-35.22577
 31
-5.162702
210
0.0
220
0.816496580927726
230
0.5773502691896259
  0
TEXT
  5
163F
100
AcDbEntity
  8
OBJECT
100
AcDbText
 10
770.003673
 20
-42.55825
 30
1.036479
 40
0.3
  1
SSFB413 - Stainless Steel Float Bracket With (4) 3/8" Cord Grips
  7
ROMANS
100
AcDbText
  0
LINE
  5
16D3
100
AcDbEntity
  8
OBJECT
100
AcDbLine
 10
775.977803
 20
-36.449816
 30
-3.43164
 11
776.670791
 21
-36.849912
 31
-2.865817
210
0.0
220
0.816496580927726
230
0.5773502691896259
  0
LINE
  5
16D4
100
AcDbEntity
  8
OBJECT
100
AcDbLine
 10
774.921069
 20
-39.308856
 30
0.610801
 11
777.6449
 21
-40.881461
 31
0.610801
  0
LINE
  5
16D5
100
AcDbEntity
  8
OBJECT
100
AcDbLine
 10
774.968682
 20
-38.440725
 30
-0.399562
 11
776.364543
 21
-39.246626
 31
-0.399562
  0
LINE
  5
16D6
100
AcDbEntity
  8
OBJECT
100
AcDbLine
 10
774.921069
 20
-39.308856
 30
0.610801
 11
775.237696
 21
-39.491661
 31
0.610801
  0
LINE
  5
16D7
100
AcDbEntity
  8
OBJECT
100
AcDbLine
 10
774.703517
 20
-39.206191
 30
0.68297
 11
773.642857
 21
-38.593818
 31
-0.183056
210
0.0
220
0.816496580927726
230
0.5773502691896259
  0
LINE
  5
16D8
100
AcDbEntity
  8
OBJECT
100
AcDbLine
 10
774.703517
 20
-39.308253
 30
0.610801
 11
773.642857
 21
-38.69588
 31
-0.255225
210
0.0
220
0.816496580927726
230
0.5773502691896259
  0
LINE
  5
16D9
100
AcDbEntity
  8
OBJECT
100
AcDbLine
 10
773.642857
 20
-38.593818
 30
-0.183056
 11
773.642857
 21
-38.69588
 31
-0.255225
210
0.0
220
0.816496580927726
230
0.5773502691896259
  0
ELLIPSE
  5
16DA
100
AcDbEntity
  8
OBJECT
100
AcDbEllipse
 10
774.968682
 20
-38.542787
 30
-0.471731
 11
0.0068696434268001
 21
-0.2507997195811118
 31
0.3546843648709774
210
0.0
220
-0.816496580927726
230
-0.5773502691896257
 40
0.97534
 41
1.919006188803759
 42
4.364179117764652
  0
CIRCLE
  5
16DB
100
AcDbEntity
  8
OBJECT
100
AcDbCircle
 10
-774.968682
 20
21.867522
 30
-31.617408
 40
0.425
210
0.0
220
0.816496580927726
230
0.5773502691896259
  0
LINE
  5
16DC
100
AcDbEntity
  8
OBJECT
100
AcDbLine
 10
774.703517
 20
-39.206191
 30
0.68297
 11
774.703517
 21
-39.308253
 31
0.610801
210
0.0
220
0.816496580927726
230
0.5773502691896259
  0
SOLID
  5
16DD
100
AcDbEntity
  8
OBJECT
100
AcDbTrace
 10
777.840573
 20
-40.720376
 30
0.610801
 11
777.882239
 21
-40.792545
 31
0.610801
 12
777.6449
 22
-40.881461
 32
0.610801
 13
777.6449
 23
-40.881461
 33
0.610801
  0
CIRCLE
  5
16DE
100
AcDbEntity
  8
OBJECT
100
AcDbCircle
 10
-776.798674
 20
20.037529
 30
-31.617408
 40
0.425
210
0.0
220
0.816496580927726
230
0.5773502691896259
  0
LINE
  5
16DF
100
AcDbEntity
  8
OBJECT
100
AcDbLine
 10
776.798674
 20
-37.48624
 30
-1.965913
 11
778.194536
 21
-38.292141
 31
-1.965913
  0
ELLIPSE
  5
16E0
100
AcDbEntity
  8
OBJECT
100
AcDbEllipse
 10
776.798674
 20
-37.48624
 30
-1.965913
 11
0.0068696434268001
 21
-0.2507997195811118
 31
0.3546843648709774
210
0.0
220
-0.816496580927726
230
-0.5773502691896257
 40
0.97534
 41
1.919006188803759
 42
4.364179117764652
  0
TEXT
  5
16E1
100
AcDbEntity
  8
OBJECT
100
AcDbText
 10
776.15462
 20
-38.929367
 30
0.295764
 40
0.3
  1
2 9/16"
  7
ROMANS
100
AcDbText
  0
LINE
  5
16E2
100
AcDbEntity
  8
OBJECT
100
AcDbLine
 10
777.676931
 20
-38.496744
 30
0.316299
 11
778.107971
 21
-38.245921
 31
0.136765
210
0.0
220
-0.816496580927726
230
-0.5773502691896257
  0
LINE
  5
16E3
100
AcDbEntity
  8
OBJECT
100
AcDbLine
 10
776.58105
 20
-39.121626
 30
-0.399562
 11
776.776999
 21
-39.014757
 31
0.147823
  0
SOLID
  5
16E4
100
AcDbEntity
  8
OBJECT
100
AcDbTrace
 10
776.560216
 20
-39.085542
 30
-0.399562
 11
776.601883
 21
-39.15771
 31
-0.399562
 12
776.364543
 22
-39.246626
 32
-0.399562
 13
776.364543
 23
-39.246626
 33
-0.399562
  0
SOLID
  5
16E5
100
AcDbEntity
  8
OBJECT
100
AcDbTrace
 10
777.852086
 20
-38.345079
 30
0.072362
 11
777.893752
 21
-38.417248
 31
0.072362
 12
778.089425
 22
-38.256164
 32
0.072362
 13
778.089425
 23
-38.256164
 33
0.072362
  0
LINE
  5
16E6
100
AcDbEntity
  8
OBJECT
100
AcDbLine
 10
775.62425
 20
-35.735381
 30
-3.359471
 11
776.534167
 21
-35.21004
 31
-4.102416
210
0.0
220
-0.816496580927726
230
-0.5773502691896257
  0
LINE
  5
16E7
100
AcDbEntity
  8
OBJECT
100
AcDbLine
 10
776.534167
 20
-32.352302
 30
-2.08169
 11
775.62425
 21
-32.877643
 31
-1.338745
210
0.0
220
0.816496580927726
230
0.5773502691896259
  0
LINE
  5
16E8
100
AcDbEntity
  8
OBJECT
100
AcDbLine
 10
776.445779
 20
-32.301271
 30
-2.153858
 11
775.535861
 21
-32.826612
 31
-1.410914
210
0.0
220
0.816496580927726
230
0.5773502691896259
  0
ARC
  5
16E9
100
AcDbEntity
  8
OBJECT
100
AcDbCircle
 10
419.113426
 20
375.106766
 30
-535.79985
 40
0.5
210
-0.7071067811865476
220
-0.4082482904638631
230
0.5773502691896259
100
AcDbArc
 50
225.0
 51
315.0
  0
ARC
  5
16EA
100
AcDbEntity
  8
OBJECT
100
AcDbCircle
 10
419.113426
 20
375.106766
 30
-535.79985
 40
0.625
210
-0.7071067811865476
220
-0.4082482904638631
230
0.5773502691896259
100
AcDbArc
 50
225.0
 51
315.0
  0
LINE
  5
16EB
100
AcDbEntity
  8
OBJECT
100
AcDbLine
 10
773.674413
 20
-35.001904
 30
-1.410914
 11
773.674413
 21
-33.820476
 31
-1.410914
  0
LINE
  5
16EC
100
AcDbEntity
  8
OBJECT
100
AcDbLine
 10
775.62425
 20
-32.877643
 30
-1.338745
 11
775.62425
 21
-35.735381
 31
-3.359471
210
0.0
220
0.816496580927726
230
0.5773502691896259
  0
LINE
  5
16ED
100
AcDbEntity
  8
OBJECT
100
AcDbLine
 10
775.535861
 20
-32.826612
 30
-1.410914
 11
775.535861
 21
-35.68435
 31
-3.43164
210
0.0
220
0.816496580927726
230
0.5773502691896259
  0
SOLID
  5
16EE
100
AcDbEntity
  8
OBJECT
100
AcDbTrace
 10
773.632746
 20
-35.001904
 30
-1.410914
 11
773.71608
 21
-35.001904
 31
-1.410914
 12
773.674413
 22
-35.251904
 32
-1.410914
 13
773.674413
 23
-35.251904
 33
-1.410914
  0
LINE
  5
16EF
100
AcDbEntity
  8
OBJECT
100
AcDbLine
 10
775.328529
 20
-36.206909
 30
-1.410914
 11
773.674413
 21
-35.251904
 31
-1.410914
  0
POINT
  5
16F0
100
AcDbEntity
  8
OBJECT
100
AcDbPoint
 10
773.674413
 20
-35.251904
 30
-1.410914
  0
POINT
  5
16F1
100
AcDbEntity
  8
OBJECT
100
AcDbPoint
 10
773.674413
 20
-35.251904
 30
-1.410914
  0
TEXT
  5
16F2
100
AcDbEntity
  8
OBJECT
100
AcDbText
 10
773.424413
 20
-33.680476
 30
-1.410914
 40
0.3
  1
4"
  7
ROMANS
100
AcDbText
  0
SOLID
  5
16F3
100
AcDbEntity
  8
OBJECT
100
AcDbTrace
 10
773.632746
 20
-32.001904
 30
-1.410914
 11
773.71608
 21
-32.001904
 31
-1.410914
 12
773.674413
 22
-31.751904
 32
-1.410914
 13
773.674413
 23
-31.751904
 33
-1.410914
  0
LINE
  5
16F4
100
AcDbEntity
  8
OBJECT
100
AcDbLine
 10
775.328529
 20
-32.706909
 30
-1.410914
 11
773.674413
 21
-31.751904
 31
-1.410914
  0
LINE
  5
16F5
100
AcDbEntity
  8
OBJECT
100
AcDbLine
 10
773.674413
 20
-32.001904
 30
-1.410914
 11
773.674413
 21
-33.183333
 31
-1.410914
  0
SOLID
  5
16F6
100
AcDbEntity
  8
OBJECT
100
AcDbTrace
 10
774.268652
 20
17.124005
 30
26.949031
 11
774.11802
 21
17.327833
 31
26.949031
 12
774.326616
 22
17.183876
 32
26.949031
 13
774.326616
 23
17.183876
 33
26.949031
210
0.0
220
-0.8164965809277262
230
-0.5773502691896258
1001
ACAD
1000
DSTYLE
1002
{
1070
   270
1070
     7
1070
    40
1040
1.0
1002
}
  0
LINE
  5
16F7
100
AcDbEntity
  8
OBJECT
100
AcDbLine
 10
775.535861
 20
-32.826612
 30
-1.410914
 11
775.62425
 21
-32.877643
 31
-1.338745
210
0.0
220
0.816496580927726
230
0.5773502691896259
  0
LINE
  5
16F8
100
AcDbEntity
  8
OBJECT
100
AcDbLine
 10
776.104749
 20
-34.850226
 30
-2.261401
 11
778.2276
 21
-33.624598
 31
-2.261401
  0
LINE
  5
16F9
100
AcDbEntity
  8
OBJECT
100
AcDbLine
 10
776.534167
 20
-32.352302
 30
-2.08169
 11
776.534167
 21
-35.21004
 31
-4.102416
210
0.0
220
0.816496580927726
230
0.5773502691896259
  0
LINE
  5
16FA
100
AcDbEntity
  8
OBJECT
100
AcDbLine
 10
777.751001
 20
-34.782268
 30
-2.261401
 11
777.946426
 21
-34.782268
 31
-2.261401
1001
ACAD
1000
DSTYLE
1002
{
1070
    40
1040
1.0
1002
}
  0
ARC
  5
16FB
100
AcDbEntity
  8
OBJECT
100
AcDbCircle
 10
419.113426
 20
375.106766
 30
-537.086668
 40
0.5
210
-0.7071067811865476
220
-0.4082482904638631
230
0.5773502691896259
100
AcDbArc
 50
225.0
 51
315.0
  0
LINE
  5
16FC
100
AcDbEntity
  8
OBJECT
100
AcDbLine
 10
775.977803
 20
-36.347753
 30
-3.359471
 11
776.887721
 21
-35.822412
 31
-4.102416
210
0.0
220
-0.816496580927726
230
-0.5773502691896257
  0
LINE
  5
16FD
100
AcDbEntity
  8
OBJECT
100
AcDbLine
 10
776.755479
 20
-36.796745
 30
-2.724501
 11
775.977803
 21
-36.347753
 31
-3.359471
210
0.0
220
0.816496580927726
230
0.5773502691896259
  0
LINE
  5
16FE
100
AcDbEntity
  8
OBJECT
100
AcDbLine
 10
777.665397
 20
-36.271404
 30
-3.467446
 11
776.887721
 21
-35.822412
 31
-4.102416
210
0.0
220
0.816496580927726
230
0.5773502691896259
  0
LINE
  5
16FF
100
AcDbEntity
  8
OBJECT
100
AcDbLine
 10
776.493638
 20
-34.929996
 30
-2.261401
 11
777.751001
 21
-34.782268
 31
-2.261401
1001
ACAD
1000
DSTYLE
1002
{
1070
    40
1040
1.0
1002
}
  0
SOLID
  5
1700
100
AcDbEntity
  8
OBJECT
100
AcDbTrace
 10
776.4985
 20
-34.971378
 30
-2.261401
 11
776.245346
 21
-34.959167
 31
-2.261401
 12
776.488776
 22
-34.888614
 32
-2.261401
 13
776.488776
 23
-34.888614
 33
-2.261401
1001
ACAD
1000
DSTYLE
1002
{
1070
    40
1040
1.0
1002
}
  0
ELLIPSE
  5
1701
100
AcDbEntity
  8
OBJECT
100
AcDbEllipse
 10
775.996496
 20
-34.787726
 30
-2.261401
 11
-0.1530931089239506
 21
-0.2651650429449543
 31
0.0
210
0.0
220
0.0
230
1.0
 40
0.57735
 41
0.3613671239066944
 42
2.780225529683029
  0
ELLIPSE
  5
1702
100
AcDbEntity
  8
OBJECT
100
AcDbEllipse
 10
776.104749
 20
-34.850226
 30
-2.261401
 11
-0.1530931089239506
 21
-0.2651650429449543
 31
0.0
210
0.0
220
0.0
230
1.0
 40
0.57735
 41
0.0
 42
6.283185307179586
  0
ELLIPSE
  5
1703
100
AcDbEntity
  8
OBJECT
100
AcDbEllipse
 10
778.795544
 20
-36.333347
 30
-3.596351
 11
0.0068696434268001
 21
-0.2507997195811118
 31
0.3546843648709774
210
0.0
220
-0.816496580927726
230
-0.5773502691896257
 40
0.97534
 41
1.919006188803759
 42
4.364179117764652
  0
CIRCLE
  5
1704
100
AcDbEntity
  8
OBJECT
100
AcDbCircle
 10
-778.795544
 20
18.04066
 30
-31.617408
 40
0.425
210
0.0
220
0.816496580927726
230
0.5773502691896259
  0
TEXT
  5
1705
100
AcDbEntity
  8
OBJECT
100
AcDbText
 10
778.279283
 20
-34.882268
 30
-2.261401
 40
0.3
  1
1/2"
  7
ROMANS
100
AcDbText
  0
TEXT
  5
1706
100
AcDbEntity
  8
OBJECT
100
AcDbText
 10
778.007854
 20
-34.882268
 30
-2.261401
 40
0.3
  1
\U+2205
  7
ROMANS
100
AcDbText
  0
TEXT
  5
1707
100
AcDbEntity
  8
OBJECT
100
AcDbText
 10
777.363314
 20
-32.974598
 30
-2.261401
 40
0.3
  1
1 1/2"
  7
ROMANS
100
AcDbText
  0
LINE
  5
1708
100
AcDbEntity
  8
OBJECT
100
AcDbLine
 10
776.104749
 20
-33.350226
 30
-2.261401
 11
778.2276
 21
-32.124598
 31
-2.261401
  0
ELLIPSE
  5
1709
100
AcDbEntity
  8
OBJECT
100
AcDbEllipse
 10
776.104749
 20
-33.350226
 30
-2.261401
 11
-0.1530931089239506
 21
-0.2651650429449543
 31
0.0
210
0.0
220
0.0
230
1.0
 40
0.57735
 41
0.0
 42
6.283185307179586
  0
ELLIPSE
  5
170A
100
AcDbEntity
  8
OBJECT
100
AcDbEllipse
 10
775.996496
 20
-33.287726
 30
-2.261401
 11
-0.1530931089239506
 21
-0.2651650429449543
 31
0.0
210
0.0
220
0.0
230
1.0
 40
0.57735
 41
0.3613671239066942
 42
2.780225529683029
  0
LINE
  5
170B
100
AcDbEntity
  8
OBJECT
100
AcDbLine
 10
776.445779
 20
-32.301271
 30
-2.153858
 11
776.534167
 21
-32.352302
 31
-2.08169
210
0.0
220
0.816496580927726
230
0.5773502691896259
  0
SOLID
  5
170C
100
AcDbEntity
  8
OBJECT
100
AcDbTrace
 10
778.185933
 20
-33.374598
 30
-2.261401
 11
778.269267
 21
-33.374598
 31
-2.261401
 12
778.2276
 22
-33.624598
 32
-2.261401
 13
778.2276
 23
-33.624598
 33
-2.261401
  0
LINE
  5
170D
100
AcDbEntity
  8
OBJECT
100
AcDbLine
 10
778.2276
 20
-33.374598
 30
-2.261401
 11
778.2276
 21
-33.193169
 31
-2.261401
  0
LINE
  5
170E
100
AcDbEntity
  8
OBJECT
100
AcDbLine
 10
778.2276
 20
-32.374598
 30
-2.261401
 11
778.2276
 21
-32.556027
 31
-2.261401
  0
SOLID
  5
170F
100
AcDbEntity
  8
OBJECT
100
AcDbTrace
 10
778.185933
 20
-32.374598
 30
-2.261401
 11
778.269267
 21
-32.374598
 31
-2.261401
 12
778.2276
 22
-32.124598
 32
-2.261401
 13
778.2276
 23
-32.124598
 33
-2.261401
  0
LINE
  5
1724
100
AcDbEntity
  8
OBJECT
100
AcDbLine
 10
784.443585
 20
-36.952974
 30
4.070693
 11
781.100298
 21
-38.894985
 31
2.739456
  0
TEXT
  5
1725
100
AcDbEntity
  8
OBJECT
100
AcDbText
 10
780.267441
 20
-39.315219
 30
2.739456
 40
0.3
  1
10"
  7
ROMANS
100
AcDbText
  0
TEXT
  5
1726
100
AcDbEntity
  8
OBJECT
100
AcDbText
 10
783.550075
 20
-35.346937
 30
-3.767392
 40
0.3
  1
1 1/4"
  7
ROMANS
100
AcDbText
  0
LINE
  5
1727
100
AcDbEntity
  8
OBJECT
100
AcDbLine
 10
782.203644
 20
-34.67235
 30
-5.728849
 11
781.380375
 21
-34.12656
 31
-6.500713
210
0.0
220
-0.8164965809277262
230
-0.5773502691896258
1001
ACAD
1000
DSTYLE
1002
{
1070
   270
1070
     7
1070
    40
1040
1.0
1002
}
  0
LINE
  5
1728
100
AcDbEntity
  8
OBJECT
100
AcDbLine
 10
781.545898
 20
-34.23473
 30
-6.347738
 11
783.066833
 21
-35.228662
 31
-4.942105
210
0.0
220
-0.8164965809277262
230
-0.5773502691896258
1001
ACAD
1000
DSTYLE
1002
{
1070
   270
1070
     7
1070
    40
1040
1.0
1002
}
  0
LINE
  5
1729
100
AcDbEntity
  8
OBJECT
100
AcDbLine
 10
780.888912
 20
-34.410306
 30
-6.099435
 11
781.871838
 21
-33.842814
 31
-6.90199
210
0.0
220
-0.816496580927726
230
-0.5773502691896257
  0
CIRCLE
  5
172A
100
AcDbEntity
  8
OBJECT
100
AcDbCircle
 10
-780.625536
 20
16.210668
 30
-31.617408
 40
0.425
210
0.0
220
0.816496580927726
230
0.5773502691896259
  0
ELLIPSE
  5
172B
100
AcDbEntity
  8
OBJECT
100
AcDbEllipse
 10
780.625536
 20
-35.276801
 30
-5.090533
 11
0.0068696434268001
 21
-0.2507997195811118
 31
0.3546843648709774
210
0.0
220
-0.816496580927726
230
-0.5773502691896257
 40
0.97534
 41
1.919006188803759
 42
4.364179117764652
  0
LINE
  5
172C
100
AcDbEntity
  8
OBJECT
100
AcDbLine
 10
781.774585
 20
-35.123708
 30
-5.090533
 11
780.713924
 21
-34.511335
 31
-5.956558
210
0.0
220
0.816496580927726
230
0.5773502691896259
  0
LINE
  5
172D
100
AcDbEntity
  8
OBJECT
100
AcDbLine
 10
781.774585
 20
-35.123708
 30
-5.090533
 11
781.774585
 21
-35.22577
 31
-5.162702
210
0.0
220
0.816496580927726
230
0.5773502691896259
  0
LINE
  5
172E
100
AcDbEntity
  8
OBJECT
100
AcDbLine
 10
783.066833
 20
-35.228662
 30
-4.942105
 11
783.492772
 21
-35.176547
 31
-4.149782
210
0.0
220
-0.816496580927726
230
-0.5773502691896257
  0
LINE
  5
172F
100
AcDbEntity
  8
OBJECT
100
AcDbLine
 10
781.949572
 20
-35.022679
 30
-5.233409
 11
782.932498
 21
-34.455186
 31
-6.035965
210
0.0
220
-0.816496580927726
230
-0.5773502691896257
  0
SOLID
  5
1730
100
AcDbEntity
  8
OBJECT
100
AcDbTrace
 10
782.172223
 20
15.367869
 30
31.617408
 11
782.36783
 21
15.529034
 31
31.617408
 12
782.235066
 22
15.313141
 32
31.617408
 13
782.235066
 23
15.313141
 33
31.617408
210
0.0
220
-0.8164965809277262
230
-0.5773502691896258
1001
ACAD
1000
DSTYLE
1002
{
1070
   270
1070
     7
1070
    40
1040
1.0
1002
}
  0
SOLID
  5
1731
100
AcDbEntity
  8
OBJECT
100
AcDbTrace
 10
781.577124
 20
14.554937
 30
31.617408
 11
781.380375
 21
14.395169
 31
31.617408
 12
781.514672
 22
14.610112
 32
31.617408
 13
781.514672
 23
14.610112
 33
31.617408
210
0.0
220
-0.8164965809277262
230
-0.5773502691896258
1001
ACAD
1000
DSTYLE
1002
{
1070
   270
1070
     7
1070
    40
1040
1.0
1002
}
  0
LINE
  5
1732
100
AcDbEntity
  8
OBJECT
100
AcDbLine
 10
781.925665
 20
-35.249252
 30
4.070693
 11
784.660091
 21
-36.827974
 31
4.070693
  0
SOLID
  5
1733
100
AcDbEntity
  8
OBJECT
100
AcDbTrace
 10
784.422751
 20
-36.91689
 30
4.070693
 11
784.464418
 21
-36.989059
 31
4.070693
 12
784.660091
 22
-36.827974
 32
4.070693
 13
784.660091
 23
-36.827974
 33
4.070693
  0
LINE
  5
1736
100
AcDbEntity
  8
DIM
 62
     6
100
AcDbLine
 39
4.3125
 10
773.081482
 20
-17.685396
 30
1.036479
 11
781.578973
 21
-17.685396
 31
1.036479
  0
TEXT
  5
1738
100
AcDbEntity
  8
OBJECT
100
AcDbText
 10
770.610637
 20
-28.654215
 30
1.036479
 40
0.3
  1
SSFB3 - Stainless Steel Float Bracket With (3) 3/8" Cord Grips
  7
ROMANS
100
AcDbText
  0
TEXT
  5
173E
100
AcDbEntity
  8
DIM
 62
     6
100
AcDbText
 10
773.126737
 20
-17.44307
 30
1.036479
 40
0.646875
  1
FLOAT BRACKETS
  7
ROMAND
 72
     1
 11
777.346826
 21
-17.44307
 31
1.036479
100
AcDbText
  0
TEXT
  5
1744
100
AcDbEntity
  8
OBJECT
100
AcDbText
 10
776.412209
 20
-30.850908
 30
-10.196448
 40
0.3
  1
1"
  7
ROMANS
100
AcDbText
  0
SOLID
  5
1745
100
AcDbEntity
  8
OBJECT
100
AcDbTrace
 10
774.899523
 20
16.629219
 30
26.949031
 11
775.050155
 21
16.42539
 31
26.949031
 12
774.841559
 22
16.569347
 32
26.949031
 13
774.841559
 23
16.569347
 33
26.949031
210
0.0
220
-0.8164965809277262
230
-0.5773502691896258
1001
ACAD
1000
DSTYLE
1002
{
1070
   270
1070
     7
1070
    40
1040
1.0
1002
}
  0
LINE
  5
17B8
100
AcDbEntity
  8
OBJECT
100
AcDbLine
 10
777.305743
 20
-20.634364
 30
2.140299
 11
777.305743
 21
-23.492102
 31
0.119573
210
0.0
220
0.816496580927726
230
0.5773502691896259
  0
LINE
  5
17B9
100
AcDbEntity
  8
OBJECT
100
AcDbLine
 10
776.307437
 20
-21.108675
 30
2.811075
 11
776.307437
 21
-23.966413
 31
0.790349
210
0.0
220
0.816496580927726
230
0.5773502691896259
  0
LINE
  5
17BA
100
AcDbEntity
  8
OBJECT
100
AcDbLine
 10
776.395825
 20
-21.159706
 30
2.883244
 11
776.395825
 21
-24.017444
 31
0.862518
210
0.0
220
0.816496580927726
230
0.5773502691896259
  0
LINE
  5
17BB
100
AcDbEntity
  8
OBJECT
100
AcDbLine
 10
776.721404
 20
-26.870757
 30
3.815181
 11
781.456197
 21
-24.137123
 31
-0.050762
210
0.0
220
0.816496580927726
230
0.5773502691896259
  0
LINE
  5
17BC
100
AcDbEntity
  8
OBJECT
100
AcDbLine
 10
775.660744
 20
-26.156323
 30
3.021324
 11
780.395537
 21
-23.422689
 31
-0.844618
210
0.0
220
0.816496580927726
230
0.5773502691896259
  0
LINE
  5
17BD
100
AcDbEntity
  8
OBJECT
100
AcDbLine
 10
776.721404
 20
-26.768695
 30
3.887349
 11
781.456197
 21
-24.035061
 31
0.021407
210
0.0
220
0.816496580927726
230
0.5773502691896259
  0
LINE
  5
17BE
100
AcDbEntity
  8
OBJECT
100
AcDbLine
 10
775.06921
 20
-20.189687
 30
2.669092
 11
776.977088
 21
-19.12326
 31
1.160937
210
0.0
220
-0.8164965809277262
230
-0.5773502691896258
1001
ACAD
1000
DSTYLE
1002
{
1070
   270
1070
     7
1070
    40
1040
1.0
1002
}
  0
TEXT
  5
17BF
100
AcDbEntity
  8
OBJECT
100
AcDbText
 10
777.183785
 20
-19.132971
 30
-5.974459
 40
0.3
  1
1"
  7
ROMANS
100
AcDbText
  0
LINE
  5
17C0
100
AcDbEntity
  8
OBJECT
100
AcDbLine
 10
782.748445
 20
-24.140015
 30
0.169835
 11
783.174384
 21
-24.0879
 31
0.962158
210
0.0
220
-0.816496580927726
230
-0.5773502691896257
  0
CIRCLE
  5
17C1
100
AcDbEntity
  8
OBJECT
100
AcDbCircle
 10
-780.307148
 20
13.982516
 30
-19.612186
 40
0.425
210
0.0
220
0.816496580927726
230
0.5773502691896259
  0
LINE
  5
17C2
100
AcDbEntity
  8
OBJECT
100
AcDbLine
 10
781.22751
 20
-23.146083
 30
-1.235798
 11
782.748445
 21
-24.140015
 31
0.169835
210
0.0
220
-0.8164965809277262
230
-0.5773502691896258
1001
ACAD
1000
DSTYLE
1002
{
1070
   270
1070
     7
1070
    40
1040
1.0
1002
}
  0
LINE
  5
17C3
100
AcDbEntity
  8
OBJECT
100
AcDbLine
 10
781.885257
 20
-23.583704
 30
-0.616909
 11
781.061987
 21
-23.037913
 31
-1.388772
210
0.0
220
-0.8164965809277262
230
-0.5773502691896258
1001
ACAD
1000
DSTYLE
1002
{
1070
   270
1070
     7
1070
    40
1040
1.0
1002
}
  0
LINE
  5
17C4
100
AcDbEntity
  8
OBJECT
100
AcDbLine
 10
780.570524
 20
-23.32166
 30
-0.987495
 11
781.55345
 21
-22.754167
 31
-1.79005
210
0.0
220
-0.816496580927726
230
-0.5773502691896257
  0
SOLID
  5
17C5
100
AcDbEntity
  8
OBJECT
100
AcDbTrace
 10
781.258736
 20
12.326786
 30
19.612186
 11
781.061987
 21
12.167018
 31
19.612186
 12
781.196284
 22
12.38196
 32
19.612186
 13
781.196284
 23
12.38196
 33
19.612186
210
0.0
220
-0.8164965809277262
230
-0.5773502691896258
1001
ACAD
1000
DSTYLE
1002
{
1070
   270
1070
     7
1070
    40
1040
1.0
1002
}
  0
LINE
  5
17C6
100
AcDbEntity
  8
OBJECT
100
AcDbLine
 10
781.631184
 20
-23.934032
 30
-0.121469
 11
782.61411
 21
-23.36654
 31
-0.924025
210
0.0
220
-0.816496580927726
230
-0.5773502691896257
  0
LINE
  5
17C7
100
AcDbEntity
  8
OBJECT
100
AcDbLine
 10
781.456197
 20
-24.035061
 30
0.021407
 11
780.395537
 21
-23.422689
 31
-0.844618
210
0.0
220
0.816496580927726
230
0.5773502691896259
  0
SOLID
  5
17C8
100
AcDbEntity
  8
OBJECT
100
AcDbTrace
 10
781.853835
 20
13.139718
 30
19.612186
 11
782.049442
 21
13.300883
 31
19.612186
 12
781.916678
 22
13.08499
 32
19.612186
 13
781.916678
 23
13.08499
 33
19.612186
210
0.0
220
-0.8164965809277262
230
-0.5773502691896258
1001
ACAD
1000
DSTYLE
1002
{
1070
   270
1070
     7
1070
    40
1040
1.0
1002
}
  0
LINE
  5
17C9
100
AcDbEntity
  8
OBJECT
100
AcDbLine
 10
781.456197
 20
-24.035061
 30
0.021407
 11
781.456197
 21
-24.137123
 31
-0.050762
210
0.0
220
0.816496580927726
230
0.5773502691896259
  0
ELLIPSE
  5
17CA
100
AcDbEntity
  8
OBJECT
100
AcDbEllipse
 10
780.307148
 20
-24.188154
 30
0.021407
 11
0.006869643426177
 21
-0.2507997195811182
 31
0.3546843648709868
210
0.0
220
-0.816496580927726
230
-0.5773502691896255
 40
0.97534
 41
1.919006188802354
 42
4.364179117763251
  0
LINE
  5
17CC
100
AcDbEntity
  8
OBJECT
100
AcDbLine
 10
778.436972
 20
-24.553466
 30
0.754543
 11
777.659296
 21
-24.104475
 31
0.119573
210
0.0
220
0.816496580927726
230
0.5773502691896259
  0
LINE
  5
17CD
100
AcDbEntity
  8
OBJECT
100
AcDbLine
 10
776.749379
 20
-24.629816
 30
0.862518
 11
777.659296
 21
-24.104475
 31
0.119573
210
0.0
220
-0.816496580927726
230
-0.5773502691896257
  0
LINE
  5
17CE
100
AcDbEntity
  8
OBJECT
100
AcDbLine
 10
776.395825
 20
-24.017444
 30
0.862518
 11
777.305743
 21
-23.492102
 31
0.119573
210
0.0
220
-0.816496580927726
230
-0.5773502691896257
  0
ARC
  5
17D0
100
AcDbEntity
  8
OBJECT
100
AcDbCircle
 10
409.351182
 20
382.32247
 30
-539.978516
 40
0.5
210
-0.7071067811865476
220
-0.4082482904638631
230
0.5773502691896259
100
AcDbArc
 50
225.0
 51
315.0
  0
TEXT
  5
17D1
100
AcDbEntity
  8
OBJECT
100
AcDbText
 10
783.231687
 20
-24.25829
 30
1.344548
 40
0.3
  1
1 1/4"
  7
ROMANS
100
AcDbText
  0
LINE
  5
17D2
100
AcDbEntity
  8
OBJECT
100
AcDbLine
 10
777.527054
 20
-25.078808
 30
1.497488
 11
776.749379
 21
-24.629816
 31
0.862518
210
0.0
220
0.816496580927726
230
0.5773502691896259
  0
LINE
  5
17D3
100
AcDbEntity
  8
OBJECT
100
AcDbLine
 10
776.749379
 20
-24.731878
 30
0.790349
 11
777.442366
 21
-25.131975
 31
1.356171
210
0.0
220
0.816496580927726
230
0.5773502691896259
  0
ARC
  5
17D4
100
AcDbEntity
  8
OBJECT
100
AcDbCircle
 10
409.351182
 20
382.32247
 30
-538.691697
 40
0.625
210
-0.7071067811865476
220
-0.4082482904638631
230
0.5773502691896259
100
AcDbArc
 50
225.0
 51
315.0
  0
ARC
  5
17D5
100
AcDbEntity
  8
OBJECT
100
AcDbCircle
 10
409.351182
 20
382.32247
 30
-538.691697
 40
0.5
210
-0.7071067811865476
220
-0.4082482904638631
230
0.5773502691896259
100
AcDbArc
 50
225.0
 51
315.0
  0
LINE
  5
17D6
100
AcDbEntity
  8
OBJECT
100
AcDbLine
 10
778.818828
 20
-27.706706
 30
3.815181
 11
780.845401
 21
-26.560108
 31
6.961445
  0
LINE
  5
17D7
100
AcDbEntity
  8
OBJECT
100
AcDbLine
 10
778.598937
 20
-26.684131
 30
2.804818
 11
778.794886
 21
-26.577261
 31
3.352202
  0
LINE
  5
17D8
100
AcDbEntity
  8
OBJECT
100
AcDbLine
 10
776.721404
 20
-26.870757
 30
3.815181
 11
775.660744
 21
-26.258385
 31
2.949155
210
0.0
220
0.816496580927726
230
0.5773502691896259
  0
LINE
  5
17D9
100
AcDbEntity
  8
OBJECT
100
AcDbLine
 10
776.721404
 20
-26.768695
 30
3.887349
 11
775.660744
 21
-26.156323
 31
3.021324
210
0.0
220
0.816496580927726
230
0.5773502691896259
  0
LINE
  5
17DA
100
AcDbEntity
  8
OBJECT
100
AcDbLine
 10
776.876325
 20
-21.632289
 30
1.960588
 11
778.999175
 21
-20.406661
 31
1.960588
  0
TEXT
  5
17DB
100
AcDbEntity
  8
OBJECT
100
AcDbText
 10
778.13489
 20
-21.256661
 30
1.960588
 40
0.3
  1
1 1/2"
  7
ROMANS
100
AcDbText
  0
LINE
  5
17DC
100
AcDbEntity
  8
OBJECT
100
AcDbLine
 10
774.445989
 20
-20.283967
 30
2.811075
 11
774.445989
 21
-21.465396
 31
2.811075
  0
LINE
  5
17DD
100
AcDbEntity
  8
OBJECT
100
AcDbLine
 10
776.100104
 20
-20.988971
 30
2.811075
 11
774.445989
 21
-20.033967
 31
2.811075
  0
LINE
  5
17DE
100
AcDbEntity
  8
OBJECT
100
AcDbLine
 10
777.217355
 20
-20.583333
 30
2.06813
 11
776.307437
 21
-21.108675
 31
2.811075
210
0.0
220
0.816496580927726
230
0.5773502691896259
  0
LINE
  5
17DF
100
AcDbEntity
  8
OBJECT
100
AcDbLine
 10
777.305743
 20
-20.634364
 30
2.140299
 11
776.395825
 21
-21.159706
 31
2.883244
210
0.0
220
0.816496580927726
230
0.5773502691896259
  0
CIRCLE
  5
17E0
100
AcDbEntity
  8
OBJECT
100
AcDbCircle
 10
-778.663884
 20
15.62578
 30
-19.612186
 40
0.425
210
0.0
220
0.816496580927726
230
0.5773502691896259
  0
ELLIPSE
  5
17E1
100
AcDbEntity
  8
OBJECT
100
AcDbEllipse
 10
778.663884
 20
-25.136893
 30
1.363127
 11
0.0068696434261739
 21
-0.2507997195811184
 31
0.3546843648709868
210
0.0
220
-0.816496580927726
230
-0.5773502691896257
 40
0.97534
 41
1.919006188802347
 42
4.364179117763245
  0
LINE
  5
17E2
100
AcDbEntity
  8
OBJECT
100
AcDbLine
 10
778.999175
 20
-21.656661
 30
1.960588
 11
778.999175
 21
-21.475232
 31
1.960588
  0
SOLID
  5
17E3
100
AcDbEntity
  8
OBJECT
100
AcDbTrace
 10
778.957509
 20
-21.656661
 30
1.960588
 11
779.040842
 21
-21.656661
 31
1.960588
 12
778.999175
 22
-21.906661
 32
1.960588
 13
778.999175
 23
-21.906661
 33
1.960588
  0
ELLIPSE
  5
17E4
100
AcDbEntity
  8
OBJECT
100
AcDbEllipse
 10
776.768071
 20
-21.569789
 30
1.960588
 11
-0.1530931089239506
 21
-0.2651650429449543
 31
0.0
210
0.0
220
0.0
230
1.0
 40
0.57735
 41
0.3613671239066942
 42
2.780225529683029
  0
ELLIPSE
  5
17E5
100
AcDbEntity
  8
OBJECT
100
AcDbEllipse
 10
776.876325
 20
-21.632289
 30
1.960588
 11
-0.1530931089239506
 21
-0.2651650429449543
 31
0.0
210
0.0
220
0.0
230
1.0
 40
0.57735
 41
0.0
 42
6.283185307179586
  0
TEXT
  5
17E6
100
AcDbEntity
  8
OBJECT
100
AcDbText
 10
778.77943
 20
-23.164331
 30
1.960588
 40
0.3
  1
\U+2205
  7
ROMANS
100
AcDbText
  0
TEXT
  5
17E7
100
AcDbEntity
  8
OBJECT
100
AcDbText
 10
779.050858
 20
-23.164331
 30
1.960588
 40
0.3
  1
1/2"
  7
ROMANS
100
AcDbText
  0
ELLIPSE
  5
17E8
100
AcDbEntity
  8
OBJECT
100
AcDbEllipse
 10
776.876325
 20
-23.132289
 30
1.960588
 11
-0.1530931089239506
 21
-0.2651650429449543
 31
0.0
210
0.0
220
0.0
230
1.0
 40
0.57735
 41
0.0
 42
6.283185307179586
  0
ELLIPSE
  5
17E9
100
AcDbEntity
  8
OBJECT
100
AcDbEllipse
 10
776.768071
 20
-23.069789
 30
1.960588
 11
-0.1530931089239506
 21
-0.2651650429449543
 31
0.0
210
0.0
220
0.0
230
1.0
 40
0.57735
 41
0.3613671239066944
 42
2.780225529683029
  0
SOLID
  5
17EA
100
AcDbEntity
  8
OBJECT
100
AcDbTrace
 10
777.270075
 20
-23.25344
 30
1.960588
 11
777.016921
 21
-23.24123
 31
1.960588
 12
777.260351
 22
-23.170676
 32
1.960588
 13
777.260351
 23
-23.170676
 33
1.960588
1001
ACAD
1000
DSTYLE
1002
{
1070
    40
1040
1.0
1002
}
  0
LINE
  5
17EB
100
AcDbEntity
  8
OBJECT
100
AcDbLine
 10
777.265213
 20
-23.212058
 30
1.960588
 11
778.522577
 21
-23.064331
 31
1.960588
1001
ACAD
1000
DSTYLE
1002
{
1070
    40
1040
1.0
1002
}
  0
LINE
  5
17EC
100
AcDbEntity
  8
OBJECT
100
AcDbLine
 10
778.522577
 20
-23.064331
 30
1.960588
 11
778.718001
 21
-23.064331
 31
1.960588
1001
ACAD
1000
DSTYLE
1002
{
1070
    40
1040
1.0
1002
}
  0
LINE
  5
17ED
100
AcDbEntity
  8
OBJECT
100
AcDbLine
 10
776.876325
 20
-23.132289
 30
1.960588
 11
778.999175
 21
-21.906661
 31
1.960588
  0
LINE
  5
17EF
100
AcDbEntity
  8
OBJECT
100
AcDbLine
 10
776.307437
 20
-21.108675
 30
2.811075
 11
776.395825
 21
-21.159706
 31
2.883244
210
0.0
220
0.816496580927726
230
0.5773502691896259
  0
TEXT
  5
17F0
100
AcDbEntity
  8
OBJECT
100
AcDbText
 10
774.195989
 20
-21.962539
 30
2.811075
 40
0.3
  1
4"
  7
ROMANS
100
AcDbText
  0
POINT
  5
17F1
100
AcDbEntity
  8
OBJECT
100
AcDbPoint
 10
774.445989
 20
-23.533967
 30
2.811075
  0
POINT
  5
17F2
100
AcDbEntity
  8
OBJECT
100
AcDbPoint
 10
774.445989
 20
-23.533967
 30
2.811075
  0
LINE
  5
17F3
100
AcDbEntity
  8
OBJECT
100
AcDbLine
 10
776.100104
 20
-24.488971
 30
2.811075
 11
774.445989
 21
-23.533967
 31
2.811075
  0
SOLID
  5
17F4
100
AcDbEntity
  8
OBJECT
100
AcDbTrace
 10
774.404322
 20
-23.283967
 30
2.811075
 11
774.487655
 21
-23.283967
 31
2.811075
 12
774.445989
 22
-23.533967
 32
2.811075
 13
774.445989
 23
-23.533967
 33
2.811075
  0
LINE
  5
17F5
100
AcDbEntity
  8
OBJECT
100
AcDbLine
 10
774.445989
 20
-23.283967
 30
2.811075
 11
774.445989
 21
-22.102539
 31
2.811075
  0
LINE
  5
17F6
100
AcDbEntity
  8
OBJECT
100
AcDbLine
 10
775.642116
 20
-19.869455
 30
2.216216
 11
774.889596
 21
-20.290084
 31
2.811075
210
0.0
220
-0.8164965809277262
230
-0.5773502691896258
1001
ACAD
1000
DSTYLE
1002
{
1070
   270
1070
     7
1070
    40
1040
1.0
1002
}
  0
SOLID
  5
17F7
100
AcDbEntity
  8
OBJECT
100
AcDbTrace
 10
775.671099
 20
13.311104
 30
14.943809
 11
775.821731
 21
13.107275
 31
14.943809
 12
775.613134
 22
13.251232
 32
14.943809
 13
775.613134
 23
13.251232
 33
14.943809
210
0.0
220
-0.8164965809277262
230
-0.5773502691896258
1001
ACAD
1000
DSTYLE
1002
{
1070
   270
1070
     7
1070
    40
1040
1.0
1002
}
  0
LINE
  5
17F8
100
AcDbEntity
  8
OBJECT
100
AcDbLine
 10
777.217355
 20
-20.583333
 30
2.06813
 11
777.305743
 21
-20.634364
 31
2.140299
210
0.0
220
0.816496580927726
230
0.5773502691896259
  0
SOLID
  5
17F9
100
AcDbEntity
  8
OBJECT
100
AcDbTrace
 10
778.957509
 20
-20.656661
 30
1.960588
 11
779.040842
 21
-20.656661
 31
1.960588
 12
778.999175
 22
-20.406661
 32
1.960588
 13
778.999175
 23
-20.406661
 33
1.960588
  0
LINE
  5
17FA
100
AcDbEntity
  8
OBJECT
100
AcDbLine
 10
778.999175
 20
-20.656661
 30
1.960588
 11
778.999175
 21
-20.838089
 31
1.960588
  0
LINE
  5
17FB
100
AcDbEntity
  8
OBJECT
100
AcDbLine
 10
777.010022
 20
-20.46363
 30
2.06813
 11
775.355906
 21
-19.508626
 31
2.06813
  0
SOLID
  5
17FC
100
AcDbEntity
  8
OBJECT
100
AcDbTrace
 10
775.040228
 20
13.80589
 30
14.943809
 11
774.889596
 21
14.009718
 31
14.943809
 12
775.098192
 22
13.865761
 32
14.943809
 13
775.098192
 23
13.865761
 33
14.943809
210
0.0
220
-0.8164965809277262
230
-0.5773502691896258
1001
ACAD
1000
DSTYLE
1002
{
1070
   270
1070
     7
1070
    40
1040
1.0
1002
}
  0
SOLID
  5
17FD
100
AcDbEntity
  8
OBJECT
100
AcDbTrace
 10
774.404322
 20
-20.283967
 30
2.811075
 11
774.487655
 21
-20.283967
 31
2.811075
 12
774.445989
 22
-20.033967
 32
2.811075
 13
774.445989
 23
-20.033967
 33
2.811075
  0
POINT
  5
17FE
100
AcDbEntity
  8
OBJECT
100
AcDbPoint
 10
774.445989
 20
-20.033967
 30
2.811075
  0
CIRCLE
  5
17FF
100
AcDbEntity
  8
OBJECT
100
AcDbCircle
 10
-776.986569
 20
17.303096
 30
-19.612186
 40
0.425
210
0.0
220
0.816496580927726
230
0.5773502691896259
  0
ELLIPSE
  5
1800
100
AcDbEntity
  8
OBJECT
100
AcDbEllipse
 10
776.986569
 20
-26.105292
 30
2.732649
 11
0.0068696434261763
 21
-0.2507997195811184
 31
0.3546843648709869
210
0.0
220
-0.816496580927726
230
-0.5773502691896255
 40
0.97534
 41
1.919006188802352
 42
4.36417911776325
  0
SOLID
  5
1801
100
AcDbEntity
  8
OBJECT
100
AcDbTrace
 10
778.578103
 20
-26.648046
 30
2.804818
 11
778.61977
 21
-26.720215
 31
2.804818
 12
778.38243
 22
-26.809131
 32
2.804818
 13
778.38243
 23
-26.809131
 33
2.804818
  0
LINE
  5
1802
100
AcDbEntity
  8
OBJECT
100
AcDbLine
 10
776.986569
 20
-26.00323
 30
2.804818
 11
778.38243
 21
-26.809131
 31
2.804818
  0
LINE
  5
1803
100
AcDbEntity
  8
OBJECT
100
AcDbLine
 10
775.660744
 20
-26.156323
 30
3.021324
 11
775.660744
 21
-26.258385
 31
2.949155
210
0.0
220
0.816496580927726
230
0.5773502691896259
  0
LINE
  5
1804
100
AcDbEntity
  8
OBJECT
100
AcDbLine
 10
776.721404
 20
-26.768695
 30
3.887349
 11
776.721404
 21
-26.870757
 31
3.815181
210
0.0
220
0.816496580927726
230
0.5773502691896259
  0
LINE
  5
1805
100
AcDbEntity
  8
OBJECT
100
AcDbLine
 10
776.938956
 20
-26.871361
 30
3.815181
 11
777.255583
 21
-27.054166
 31
3.815181
  0
LINE
  5
1806
100
AcDbEntity
  8
OBJECT
100
AcDbLine
 10
776.938956
 20
-26.871361
 30
3.815181
 11
778.826099
 21
-27.960904
 31
3.815181
  0
SOLID
  5
1807
100
AcDbEntity
  8
OBJECT
100
AcDbTrace
 10
778.797994
 20
-27.670621
 30
3.815181
 11
778.839661
 21
-27.74279
 31
3.815181
 12
778.602321
 22
-27.831706
 32
3.815181
 13
778.602321
 23
-27.831706
 33
3.815181
  0
LINE
  5
1808
100
AcDbEntity
  8
OBJECT
100
AcDbLine
 10
779.628705
 20
-26.091556
 30
1.614829
 11
780.059746
 21
-25.840732
 31
1.435295
210
0.0
220
-0.816496580927726
230
-0.5773502691896257
  0
SOLID
  5
1809
100
AcDbEntity
  8
OBJECT
100
AcDbTrace
 10
779.80386
 20
-25.939891
 30
1.370892
 11
779.845527
 21
-26.012059
 31
1.370892
 12
780.0412
 22
-25.850975
 32
1.370892
 13
780.0412
 23
-25.850975
 33
1.370892
  0
TEXT
  5
180A
100
AcDbEntity
  8
OBJECT
100
AcDbText
 10
778.172507
 20
-26.491872
 30
3.500144
 40
0.3
  1
2 3/4"
  7
ROMANS
100
AcDbText
  0
LINE
  5
180B
100
AcDbEntity
  8
OBJECT
100
AcDbLine
 10
783.064732
 20
-25.252068
 30
9.182634
 11
781.682544
 21
-26.076784
 31
6.961445
  0
TEXT
  5
180C
100
AcDbEntity
  8
OBJECT
100
AcDbText
 10
781.060871
 20
-26.497017
 30
6.961445
 40
0.3
  1
8"
  7
ROMANS
100
AcDbText
  0
SOLID
  5
180D
100
AcDbEntity
  8
OBJECT
100
AcDbTrace
 10
783.043898
 20
-25.215983
 30
9.182634
 11
783.085565
 21
-25.288152
 31
9.182634
 12
783.281238
 22
-25.127068
 32
9.182634
 13
783.281238
 23
-25.127068
 33
9.182634
  0
LINE
  5
180E
100
AcDbEntity
  8
OBJECT
100
AcDbLine
 10
781.607277
 20
-24.160606
 30
9.182634
 11
783.416995
 21
-25.205447
 31
9.182634
  0
LINE
  5
180F
100
AcDbEntity
  8
OBJECT
100
AcDbLine
 10
778.663884
 20
-25.034831
 30
1.435295
 11
780.059746
 21
-25.840732
 31
1.435295
  0
ENDSEC
  0
SECTION
  2
OBJECTS
  0
DICTIONARY
  5
C
100
AcDbDictionary
  3
ACAD_GROUP
350
D
  3
ACAD_MLINESTYLE
350
1A
  3
ACDBVARIABLEDICTIONARY
350
37
  3
DRAWINGVARIABLESDICT
350
1179
  0
DICTIONARY
  5
D
102
{ACAD_REACTORS
330
C
102
}
100
AcDbDictionary
  0
DICTIONARY
  5
1A
102
{ACAD_REACTORS
330
C
102
}
100
AcDbDictionary
  3
STANDARD
350
1B
  0
DICTIONARY
  5
37
102
{ACAD_REACTORS
330
C
102
}
100
AcDbDictionary
  3
DIMADEC
350
38
  0
DICTIONARY
  5
1179
102
{ACAD_REACTORS
330
C
102
}
100
AcDbDictionary
1001
DRAWINGVARIABLESXDATA
1000
POLARANG
1000
0.785398
1000
POLARMODE
1000
1
  0
MLINESTYLE
  5
1B
102
{ACAD_REACTORS
330
1A
102
}
100
AcDbMlineStyle
  2
STANDARD
 70
     0
  3

 62
   256
 51
90.0
 52
90.0
 71
     2
 49
0.5
 62
   256
  6
BYLAYER
 49
-0.5
 62
   256
  6
BYLAYER
  0
DICTIONARYVAR
  5
38
102
{ACAD_REACTORS
330
37
102
}
100
DictionaryVariables
280
     0
  1
0
  0
ENDSEC
  0
EOF
